Sweet Jane (ver2) Chords - Lou Reed






Sweet Jane by Lou Reed

I've took this from the live version featured on "A Night with Lou Reed" DVD
This is the real way of how Lou play it live

Two guitars - Standard Tunning

(Figure out strumming pattern yourself)

Guitar 1 (Lou Reed):

Verse & Chorus:

    D / A / G // Bm / A / D
e:--5---5---3-----2---5---5-----|
b:--7---5---3-----3---5---7-----|
g:--7---6---4-----4---6---7-----|
d:--7---7---5-----4---7---7-----|
a:--5---7---5-----2---7---5-----|
e:--x---5---3-----2---5---5-----|


Interlude (Heavenly wine and roses...):

      D / Db // G / A (keep A for A while)
e:----5---4-----3---5--------|
b:----7---6-----3---5--------|
g:----7---6-----4---6--------|
d:----7---6-----5---7--------|  x2
a:----5---4-----5---7--------|
e:----x---x-----3---5--------|


Outro (la la la...):

      x // G
e:----5----3-----|
b:----7----3-----|
g:----5----4-----|
d:----5----5-----|  x2
a:----7----5-----|
e:----5----3-----|



Guitar 2 (Robert Quine-the other guy)

Verse:

    E / x / x //  x / x / E
e:--0---0---0-----4---0---0-----|
b:--0---7---5-----5---7---0-----|
g:--1---8---6-----6---8---1-----|
d:--2---9---7-----6---9---2-----|
a:--2---9---7-----0---9---2-----|
e:--0---0---0-----x---0---0-----|

Chorus:

    E / B / A // C# / B / E
e:--0---2---0-----4---2---0-----|
b:--0---4---2-----6---4---0-----|
g:--1---4---2-----6---4---1-----|
d:--2---4---2-----6---4---2-----|
a:--2---2---0-----4---2---2-----|
e:--0---x---x-----x---x---0-----|

Interlude (Heavenly wine and roses...):

      D / Db // G / A (keep A for A while)
e:----5---4-----3---5--------|
b:----7---6-----3---5--------|
g:----7---6-----4---6--------|
d:----7---6-----5---7--------|  x2
a:----5---4-----5---7--------|
e:----x---x-----3---5--------|


Outro (la la la...):

      E // A
e:----0----0-----|
b:----0----2-----|
g:----1----2-----|
d:----2----2-----|  x2
a:----2----0-----|
e:----0----x-----|

My first tab for a great song.


Tab by Alexito. 
Any corrections/comments to vasily6969@hotmail.com

Înscrie-te la newsletter


Join the ranks ! LIKE us on Facebook