Let It Go Intro Tab - Loudness






                            loudness
                           "Let It Go"

intro 3x
------------------------------------------------------------------------------|
--10-10-9--------7-----9-----------7-----9------------------------------------|
---9--9-9--9--9--7--7--7--7--7--7--7--7--7------------------------------------|
------------------------------------------------------------------------------|
------------------------------------------------------------------------------|
------------------------------------------------------------------------------|
p.m.       ----     -     -------     ----------------------------------------|


------------------------------------------------------------------------------|
--10-10-9--------7-----9------------------------------------------------------|
---9--9-9--9--9--7--7--7--7--7--7--------2------------------------------------|
--------------------------------------2--2--2---------------------------------|
--------------------------------------2--0--2---------------------------------|
--------------------------------------0-----0---------------------------------|
p.m.       ----     -     -------

------------------------------------------------------------------------------|
--10-10-9--------7-----9-----------7-----9------------------------------------|
---9--9-9--9--9--7--7--7--7--7--7--7--7--7------------------------------------|
------------------------------------------------------------------------------|
------------------------------------------------------------------------------|
------------------------------------------------------------------------------|
p.m.       ----     -     -------     --


------------------------------------------------------------------------------|
--10-10-9--------7-----9------------------------------------------------------|
---9--9-9--9--9--7--7--7--7--7--7-----2----2----------------------------------|
-----------------------------------2--2--2-2--2----------7-8-9---------------|
-----------------------------------2--0--2-0--2----------5-6-7---------------|
-----------------------------------0-----0----0-------------------------------|
p.m.       ----     -     -------

2x
------------------------------------------------------------------------------|
------------------------------------------------------------------------------|
------------------------------------------------------------------------------|
-----------------------------------------9-----------------------------------|
-----------------------------------------7-----------------------------------|
-0--0--0--0--0--0--0--0--0--0--0--0--0----------------------------------------|
p.m.--------------------------------------------------------------------------|






Like us on Facebook