Rider Of The Astral Fire Tab - LUCA TURILLI






*****************************************************************************************
* LUCA TURILLI - RIDER OF THE ASTRAL FIRE (From the Album: PROPHET OF THE LAST ECLIPSE) *
*****************************************************************************************
 Music and Words By: Luca Turilli

Transcribed By: Niclas Buss
Day tabbed: 14.2 & 1.5.2003
Homepage: http://www.metalprovider.com/thedarktower
          http://www.northernflame.tk

email: thetabber@yahoo.se

Please mail me if you can find mistakes!

-----------------------------------------

 Normal Tuning!!

                    Dist.Guitar enters at (0:15)
E-----------------------------------------------------------------------------------|
B-----------------|-----------------------------------------------------------------|
G---Synth-Intro---|---7---5----------/7---5-----------------------------------------|
D-----------------|---7---5---8---7--/7---5---8---7---------7-----------------------|
A-----------------|---5---3---8---7--/5---3---8---7---------7----------/5--5-5-5-5--|
E-----------------------------6---5-----------6---5--6h8p6~-5--6h8p6~---------------|
                                                                      pm............

E-----------------------------------------------------------------------------------|
B-----------------------------------------------------------------------------------|
G-----------------------------------------------------------------------------------|
D-----------------------------------------------------------------------------------|
A-5--5--5-3--3-3-3-3--3--3--3--------------------------------------------/5--5-5-5-|
E------------------------------6--6-6-6-6--6--6--6-5--5-5-5-5--5--6--8------------|
 ...................................................................................

E-----------------------------------------------------------------------------------|
B-----------------------------------------------------------------------------------|
G-----------------------------------------------------------------------------------|
D-----------------------------------------------------------------------------------|
A-5--5--5--5-3--3-3-3-3--3--3--3---------------------------------------------------|
E---------------------------------6--6-6-6-6--6--6--6-5--5-5-5-5--6h8p6--5--5-5-5-|
 .................................................................|       pm........

                                                        Riff 1 (Guitar 1)
E-----------------------------------------------------------------------------------|
B-----------------------------------------------------|-----------------13----------|
G-----------------------------------------------------|*-------14-12-14----14-------|
D-----------------------------------------------------|*--12~-----------------15~--|
A-----------------------------------------------------|-----------------------------|
E-5--6h8p6--5--5-5-5-5--5--5--5--5--5-5-5-5--5--5--5--------------------------------|
 ..|       pm.......................................|

E-----------------------------------------------------------------------------------|
B--------------15-11-------------------13-------------------------------------------|
G-----14-12-14-------12~------14-12-14----14-----/15-12----12---------------14-12-14|
D-12~--------------------12~-----------------15~--------14----15~-12~--12~----------|
A-----------------------------------------------------------------------------------|
E-----------------------------------------------------------------------------------|
                                                              _____________________ 
                                                             |1.                   |
E------------------------------------------------------------|---------------------||
B-13-----------------------15-11-------------------13--------|---------------------||
G----14-----------14-12-14-------12~------14-12-14----14-----|--------------------*||
D-------15~-12~---------------------12~-----------------15~-|----------14-12-----*||
A------------------------------------------------------------|--12~-15~-------15~--||
E------------------------------------------------------------|---------------------||
  _____________________________________________________ 
 |2.                                                   |   Riff 1 (Guitar 2)
E|-----------------------------------------------------||---------------------------|
B|-----------------------------------------------------||---------------------------|
G|-----------------------------------------------------||*--7-----------------------|
D|----------14-12--------------14-12-------10~~------||*--7-----------------------|
A|--12~-15~-------15~--12~-15~-~-----15~---10~~------||---5-5-5-5-5-5-5-5-5-5-5-5-|
E|------------------------------------------8~~------||---------------------------|
                                                             pm.....................

E-----------------------------------------------------------------------------------|
B-----------------------------------------------------------------------------------|
G----------------------------------------------------------------/7-----------------|
D----------------------------------------------------------7~-7~-/7-----------------|
A-5-5-5-5-5-5-5-5-5-5-5-5-5-5-5-5-5-5-5-5-5-5-5-5-5--------5~-5~-/5-5-5-5-5-5-5-5-5-|
E----------------------------------------------------3~-1~-5~-5~--------------------|
 ..................................................|               pm...............

E-----------------------------------------------------------------------------------|
B-------------------------------------------------------------------------|---------|
G------------------------------------------------------------------------*|---------|
D------------------------------------------------------------------------*|---------|
A-5-5-5-5-5-5-5-5-5-5-5-5-5-5-5-5-5-5-5-5-5-5-5-5-5-5-5-5-----3~-7-5-3~---|-----3~-7|
E----------------------------------------------------------5~----------------5~-----|
 ........................................................|

        (end Intro)   Verse 1
E------------------||---------------------------------------------------------------|
B------------------||---------------------------------------------------------------|
G-------5~~-------||*--------------------------------------------------------------|
D-------5~~-------||*--0-0-0-0-0-0-0-0-0-0-0-0-------------------------------------|
A-5-3~--3~~-------||---------------------------