We Aint Much Different Intro Tab - Lynyrd Skynyrd




-----------------------------------------------------------------------------
             We Ain't Much Different- LYNYRD SKYNYRD
-----------------------------------------------------------------------------
Tabbed By:pinkfloyd323
Email:none of ur business     I FIGURED THIS OUT BY EAR!

    
Tuning:Standard

e-----------------------[--------------------[------------------------[
B-----------------------[--------------------[------------------------[      
G------2----2--5-x-7-5-2[-----2----2--5--x--7[-----2----2--5-x-7-5-2--[
D-/2-x-2--5-2--5-x-7-5-2[-2-x-2--5-2--5--x--7[-2-x-2--5-2--5-x-7-5-2--[      
A--0-x-0----0--3-x-5-3-0[-0-x-0----0--3--x--5[-0-x-0----0--3-x-5-3-0--[
E-----------------------[--------------------[------------------------[
  *INTRO                                                              *
e-------------------------------------------------------------------[
B-------------------------------------------------------------------[
G---------0-----0-------------------------2----2--5-x-7-5-2---------[
D-------0-----0-----------------------2-x-2--5-2--5-x-7-5-2---------[        
A-0--/5-----3-----0---------3b4r3p0---0-x-0----0--3-x-5-3-0---------[        
E--------------------0--3-5---------3-------------------------------[
                       *PM *
 (play the rest of the intro)
I'm working on the solo and im almost done ,but i decided to go ahead and put this on.  PEACE!

ĂŽnscrie-te la newsletter


Join the ranks ! LIKE us on Facebook