Alice And Interiors Intro Tab - Manchester Orchestra






you have to figure out the rythem on your own
.....not sure if the last few notes are right, correct them if you think they are wrong

e|--------------------------------------------------------------------------|
B|-----------------------2------------------------------------------2-------|
G|------2--4-2-46-4-2--2-----2--4-2-46-4-2-2-1---2--4-2-1-2-1----2--------|
D|---0-----------------0------------------------------------------0---------|
A|--------------------------------------------------------------------------|
E|--------------------------------------------------------------------------|

e|--------------------2-----------------------------------------------------|
B|------------------2---2---------------------------------------------------|
G|--2--4-2-1-2-1--1-------1-------------------------------------------------|
D|--------------------------------------------------------------------------|
A|--------------------------------------------------------------------------|
E|--------------------------------------------------------------------------|

---repeats throughout song


| /  slide up
|   slide down
| h  hammer-on
| p  pull-off
| ~  vibrato
| +  harmonic
| x  Mute note






Like us on Facebook