Slow To Learn Intro Tab - Manchester Orchestra






-------------------------------------------------------------------------------
Slow To Learn - Manchester Orchestra
-------------------------------------------------------------------------------
Tabbed by: MAX
Email: GoState721@aol.com

Tuning: Standard EADGBE
GUITAR 1

e|-----------------------------------------------------------------------------|
B|-----------------------------------------------------------------------------|
G|-----------------------------------------------------------------------------|
D|-----------------------------------------------------------------------------|
A|------7-7---9-9--11-11-9-7-------7-9-9-11-11-9-------------------------------|
E|-----------------------------------------------------------------------------|

e|-----------------------------------------------------------------------------|
B|-----------------------------------------------------------------------------|
G|-----------------------------------------------------------------------------|
D|-----------------------------------------------------------------------------|
A|------9-9--7-7-6-6-7-7----------9-7-7-6-6-7----------------------------------|
E|-----------------------------------------------------------------------------|

GUITAR 2
e|-----------------------------------------------------------------------------|
B|-----------------------------------------------------------------------------|
G|-----------------------------------------------------------------------------|
D|-------7-------------------------------11------------------------------------|
A|-------7----X8----then X7----------11-----X8 then X7-------------------------|
E|-------5--------------------------------9------------------------------------|


| /  slide up
|   slide down
| h  hammer-on
| p  pull-off
| ~  vibrato
| +  harmonic
| x  Mute note
===============================================================================






Like us on Facebook