Playing God Intro Tab - Manticora






C'est juste le dbut:

-----------------------------------|
-----------------------------------|
-----------------------------------|
-------------------------2---------|
---------1-------2---------3-2-0---|
-0-2-3-0---3-2-0---3-2-0-----------|

Et a c'est le dbut de Creator of Failure:

-----------------------------------|
-----------------------------------|
-----------------------------------|
-----------------------------------|
----7------------------------------|
-0----8-7--0-6-7-0-5-6-0-5---------|


-----------------------------------|
-----------------------------------|
-----------------------------------|
-----------------------------------|
---7-------------------------------|
-0---8-7--0-6-7-0-5-6-0-7----------|






Like us on Facebook