You Spin Me Around Bass Tab - Marilyn Manson






-------------------------------------------------------------------------------
     YOU SPIN ME AROUND - Mariyn manson
-------------------------------------------------------------------------------

Tabbed By : Twig
e-mail: nexus1101@hotmail.co.uk

Tuning: Standard EADG

Im pretty much 100% sure this is right. Ive played it through a few times and
it sounds just right.

Intro - Bass comes in at 0:04
G|---------------------------------------------------------------------------|
D|---------------------------------------------------------------------------|
A|----------------0-0-0-0-----------------------2-2-2-2----------------------|
E|-2-2-2-2-2-2-2-2-------0-0-0-0-2-2-2-2-2-2-2-2-------0-0-0-0---------------|

G|---------------------------------------------------------------------------|
D|---------------------------------------------------------------------------|
A|-2-2-2-2-2-0-0-0-0---------------------------------------------------------|
E|-------------------4-4-4-4-3-3-3-3-2-2-2-2-2-2-2-2-0-0-2-0-2---------------|


Verses (Play the first bit twice then go to the next bar)
G|---------------------------------------------------------------------------|
D|---------------------------------------------------------------------------|
A|--------------------------------0-2-2-2-2-2-2-2-0-2-2-2-2-2-2-2------------|
E|-0-2-2-2-2-2-2-2-0-2-2-2-2-2-2-2-------------------------------------------|

G|---------------------------------------------------------------------------|
D|---------------------------------------------------------------------------|
A|---------------------------------2-2-2-2-2-2-2-2-4-4-4-4-4-4-4-4-----------|
E|-2-2-2-2-2-2-2-2-5-5-5-5-5-5-5-5-------------------------------------------|


Chorus'  (Play twice)
G|---------------------------------------------------------------------------|
D|---------------------------------------------------------------------------|
A|----------------0-0-0-0-----------------------2-2-2-2----------------------|
E|-2-2-2-2-2-2-2-2-------0-0-0-0-2-2-2-2-2-2-2-2-------0-0-0-0---------------|


Little interlude thingy (sounds good if you bend the last note)
G|---------------------------------------------------------------------------|
D|---------------------------------------------------------------------------|
A|---------------------------------------------------------------------------|
E|-2-2-2---------------------------------------------------------------------|

Bass part to the two little guitar solos, (the first at 1:58, the second at 2:27)
G|---------------------------------------------------------------------------|
D|---------------------------------------------------------------------------|
A|--------------------------------2-2-2-2-2-2-2-2-2-2-2-2-2-2-2-2------------|
E|-2-2-2-2-2-2-2-2-2-2-2-2-2-2-2-2-------------------------------------------|

The one at 1:58 ends like this
G|---------------------------------------------------------------------------|
D|---------------------------------------------------------------------------|
A|---------------------------------2-2-2-2-2-2-2-2-4-4-4-4-4-4-4-4-----------|
E|-2-2-2-2-2-2-2-2-5-5-5-5-5-5-5-5-------------------------------------------|

The one at 2:27 ends like this
G|---------------------------------------------------------------------------|
D|---------------------------------------------------------------------------|
A|-2-2-2-2-2-0-0-0-0---------------------------------------------------------|
E|-------------------4-4-4-4-3-3-3-3-2-2-2-2-2-2-2-2-0-0-2-0-2---------------|


| /  slide up
|   slide down
| h  hammer-on
| p  pull-off
| ~  vibrato
| +  harmonic
| x  Mute note
===============================================================================

ĂŽnscrie-te la newsletter


Like us on Facebook