Chainshaw Gutsfuck Tab - Mayhem






Mayhem-Chainsaw Gutsfuck
Transcribed By:Lord Agony
Album:Deathcrush

Begining Bass Riff w/Distortion
--------------------------------------
--------------------------------------
--------------------------------------
-032-----032-------032-------032------

2 notes between bass riff goes chainsaw effect w/distortion
------------------
------------------
------------------
------------------
--2--2------------
--0--0------------
pm..

Continue Bass Through Following Guitar Riff
-------------------------------------------
-------------------------------------------
-------------------------------------------
-------------------------------------------
--(2) /12----2----22---2-----1/2----21---
--(2) /12----0----00---0-----3/5----53---

Next Following Riff
--|---------------------------------
--|---------------------------------
--|---------------------------------
--|---------------------------------
--|---2--2---1--2------3---3--------
--|---0--0---3--0-------4----4------

Next Bass Riff
--------------------------------------
--------------------------------------
--------------------------------------
--0-0-3-0---1/2--21------------------

ĂŽnscrie-te la newsletter


Like us on Facebook