Dentro De Mi Tab - Mayhem






INTRO

E--------------------------------------------------------------------------|
B6-/-- -7-----------------------------------------------------------------|
G---------------9--/--10---10 ---10----9---7-------------------------------|
D----------------------------------------------------9---------------------|
A--------------------------------------------------------------------------|
E--------------------------------------------------------------------------|

Verse 1

E------------------------------------------------------------------|
B------------------------------------------------------------------|
G------------------------------------------------------------------|
D---------------------------------3-------------with lyrics--------|
A--3let ring----3--4-----3--1-------------------------------------|
E--1----------------1--2-----1-------------------------------------|


Verse 2

E------------------------------------------------------------------|
B------------------------------------------------------------------|
G------------------------------------------------------------------|
D------------------------------------------------------------------|
A-----------------------------1------------------------------------|
E---0--2--3-0---4---3---0--------0---------------------------------|

Chorus

E-----------------------------------------------------------------|
B-----------------------------------------------------------------|
G-----------------------------------------------------------------|
D-----------------------------------------------------------------|
A---5--/--6---6--6--6--6---2------or-----5--5-----3----2---1------|
E---3--/--4---4--4--4--4---2--------------3--3----3----2---1------|

SOLO: its just improvising with wah wah pedal on the em pentatonic scale

ĂŽnscrie-te la newsletter


Join the ranks ! LIKE us on Facebook