Laisse-moi Taimer Tab - Mercedes Band






Mercedes Band - Laisse-moi Taimer

J'ai hinc le solo de l'intro pour l'instant mais j'aurai le reste plus tard...

--------------------------------------------12b---------------
--------------------------------------------------11-13_-13b--
-----------9_--9/10~~-10_10h12----12b--10---------------------
------12-----------------------10-----------------------------
--12----------------------------------------------------------
--------------------------------------------------------------

*Les _ veut dire de tenir la note un peu plus longtemps


-------------------------------------
-------------------------------------
-------------------------------------
-----------10h12-10------------------
--10h12----10h12-10-12-10/-----------
--10h12-------------12--8/-----------

Svp votez et envoy vos commentaires et/ou vos correction






Like us on Facebook