Putting To Sleep A Lion Intro Tab - Meriwether






---------------------------------------------------------------
                 Putting to sleep a lion
---------------------------------------------------------------
Tabbed by colton cauthen.  Should be pretty close.  Good luck!

e|---------------------------------------2--------------0-------|
B|---------3--------------2-------------------------------------|
G|---2---2--2--2------------------------------------------------|
D|-------------------0--0--0-0-----0---0---0-0-----0---0--0-0---|
A|--5--5-----5------0--0----0-----2---2-----2----2---2-----2----|
E|--------------------------------------------------------------|
 Just repeat that through the intro.









Like us on Facebook