Metallica - Last caress - Metallica






   I got something to ...


C F G C F G
E|--------------------------------------------------------|
B|--------------------------------------------------------|
G|-5--------------------------5---------------------------|
D|-5--------------------------5---------------------10-12-|
A|-3---------------------3-5--3---------------------8--10-|
E|-----------------------1-3------------------------------|

Doesn't matter much ....
F D C C ................
|-------------------------------------------------------------
|-------------------------------------------------------------
|-------------------------------------------------------------
|-10----------------7----------------5----5-5-5-5-5-5-5-5-5-5-
|-8-----------------5----------------3----3-3-3-3-3-3-3-3-3-3-
|-------------------------------------------------------------
F G C C . . . . . . . . . F G G
|-----------------------------------------------
|-----------------------------------------------
|-----------------------------------------------
|-10-12--5---5-5-5-5-5-5-5-5-5-5---------12-12--
|-8--10--3---3-3-3-3-3-3-3-3-3-3---6h7h8s10-10--
|-----------------------------------------------

I got something to ...
C C . . . . . . . . F G C C . . . . . . . . . F G
|--------------------------------------------------------------
|--------------------------------------------------------------
|--------------------------------------------------------------
|-5--5-5-5-5-5-5-5-5-5-5--10-12--5--5-5-5-5-5-5-5-5-5-5---10-12
|-3--3-3-3-3-3-3-3-3-3-3--8--10--3--3-3-3-3-3-3-3-3-3-3---8--10
|--------------------------------------------------------------

Doesn't matter much to ...
F F D D C C B/C B/C
|----------------------------------------------------------------
|----------------------------------------------------------------
|----------------------------------------------------------------
|-10-10--------7-7------------5-5---------------4s5-4s5----------
|-8--8---------5-5------------3-3---------------2s3-2s3----------
|-----------------------------------------------------------------

c/o
Who knows if death ...
F F D D D E . . . . . . . . D C
|-----------------------------------------------------------
|-----------------------------------------------------------
|-----------------------------------------------------------
|-10-10---------7-7---------7--9-9-9-9-9-9-9-9-9----7--5----
|-8--8----------5-5---------5--7-7-7-7-7-7-7-7-7----5--3----
|-----------------------------------------------------------

Cause we get ...
|------------------------------------------------------------------
|------------------------------------------------------------------
|------------------------------------------------------------------
|-10-10------7-7--------------5--5-5-5-5-5-5-5-5-5-5---------12-12-
|-8--8-------5-5--------------3--3-3-3-3-3-3-3-3-3-3---6h7h8s10-10-
|------------------------------------------------------------------

|-------------------------------------------------------------------
|-------------------------------------------------------------------
|-------------------------------------------------------------------
|-5--5-5-5-5-5-5-5-5-5-5--10-12--5--5-5-5-5-5-5-5-5-5-5--10-12------
|-3--3-3-3-3-3-3-3-3-3-3--8--10--3--3-3-3-3-3-3-3-3-3-3--8--10------
|-------------------------------------------------------------------

|--------------------------------------
|-------------------------------------- Back to c/o and repeat till
|-------------------------------------- strumming hand hurts or
|-10-10----7-7-------5-5-----4s5-4s5--- pick breaks or whichever comes
|-8--8-----5-5-------3-3-----2s3-2s3--- first...........
|--------------------------------------

The whole song is played using power chords and I prefer to use only two
strings for speed . All of it is played with downstrokes ( which , by the
way is almost impossible ) and I take no responsibility for timing.
The hammer and sliding part is how it sounds to me , but if you have a
better idea , go ahead and correct me .






Like us on Facebook