Raw Sugar Bass Tab - Metric




METRIC - RAW SUGAR
(Tabbed by w7w7w7)



Verse
G|-----------------------------------------------------------------------|
D|---------7--------------------------------10---------------------------|
A|-------7-----5---7-7---7-8-7-5---------10------10---11---8-------------|
E|-5-5-----------------------------8-8-------------------------6---6-----|

G|-----------------------------------------------------------------------|
D|---------7--------------------------------10-----------------8---------|
A|-------7-----5---7-7---7-8-7-5---------10------10---11---8-------------|
E|-5-5-----------------------------8-8-----------------------------6-----|

G|-----------------------------------------------------------------------|
D|---------7--------------------------------10-----------------8---------|
A|-------7-----5---7-7---7-8-7-5---------10------10---11---8-------------|
E|-5-5-----------------------------8-8---------------------------0-6-7-8-|



Bridge
G|-----------------------------------------------------------------------|
D|----------10---------------9---10---7-7--------------------------------|
A|-------10------5---7-7---7----------------7----------------------------|
E|-8-8----------------------------------------5---5---4---4---6---6------|



Chorus
G|-----------------------------------------------------------------------|
D|-----------------------------------------------------------------------|
A|---------------------------------------------------------------5-------|
E|-8-8---8---8---8---6---6---6---6---4---4---4---4---3---3---6-----------|

G|-----------------------------------------------------------------------|
D|-----------------------------------------------------------------------|
A|-----------------------------------------------------------------------|
E|-8-8---8---8---8---6---6---6---6---4---4---4---4---3---3---------------|
ĂŽnscrie-te la newsletter


Join the ranks ! LIKE us on Facebook