Twilight Galaxy Tab - Metric




Song: Twilight Galaxy (as performed on "The Rawside Of... Metric)
Band: Metric
Album: Fantasies (2009)

Tuning: Standard
Tabbed by: Long Hoang

Intro
e ---------------------------------------------------------------------|
B ---------------------------------------------------------------------|
G ---------------------------------------------------------------------|
D --------------6~--------6~---6-4---4------4------4------6~---6-4-----|
A ------------6--------------------6---6~--------------------------6---|
E ---(7~)---7--------2~-----------------------7~-----6~----------------|


Verse 3x
e -------------------------------------|
B -------------------------------------|
G -------------------------------------|
D ---4------4------4------6~---6-4-----|
A -----6~--------------------------6---|
E ------------7~-----6~----------------|


Pre Chorus
e ---------------------------------------------------------------------|
B ---------------------------------------------------------------------|
G -------------------------------3-4-----------------------------------|
D ---6---6-6-6---6-6-6---6-6-6---6-6-6---6-6-6---6-6-6---6-6-6---6-6---|
A ---6---6-6-6---6-6-6---6-6-6---6-6-6---6-6-6---6-6-6---6-6-6---6-6---|
E ---4---4-4-4---4-4-4---4-4-4---4-4-4---4-4-4---4-4-4---4-4-4---4-4---|


Chorus 4x
e ---7---7-7---7---7---7-0---0---0-0---0---0---0-4---|
B ---7---7-7---7---7---7-0---0---0-0---0---0---0-4---|
G ---8---8-8---8---8---8-1---1---1-1---1---1---1-4---|
D ---9---9-9---9---9---9-2---2---2-2---2---2---2-6---|
A ---9---9-9---9---9---9-2---2---2-2---2---2---2-6---|
E ---7---7-7---7---7---7-0---0---0-0---0---0---0-4---|


Verse
e ----------------------------------------------------------------|
B ----------------------------------------------------------------|
G ----------------------------------------------------------------|
D -------6~-----4~---6~---6-4---4------4------4------6~---6-4-----|
A -----6------6---------------6---6~--------------------------6---|
E ---7-----------------------------------7~-----6~----------------|

e -------------------------------------|
B -------------------------------------|
G -------------------------------------|
D ---4------4------4------6~---6-4-----|
A -----6~--------------------------6---|
E ------------7~-----6~----------------|


Pre Chorus
e ---------------------------------------------------------------------|
B ---------------------------------------------------------------------|
G -------------------------------3-4-----------------------------------|
D ---6---6-6-6---6-6-6---6-6-6---6-6-6---6-6-6---6-6-6---6-6-6---6-6---|
A ---6---6-6-6---6-6-6---6-6-6---6-6-6---6-6-6---6-6-6---6-6-6---6-6---|
E ---4---4-4-4---4-4-4---4-4-4---4-4-4---4-4-4---4-4-4---4-4-4---4-4---|


Chorus 4x
e ---7---7-7---7---7---7-0---0---0-0---0---0---0-4---|
B ---7---7-7---7---7---7-0---0---0-0---0---0---0-4---|
G ---8---8-8---8---8---8-1---1---1-1---1---1---1-4---|
D ---9---9-9---9---9---9-2---2---2-2---2---2---2-6---|
A ---9---9-9---9---9---9-2---2---2-2---2---2---2-6---|
E ---7---7-7---7---7---7-0---0---0-0---0---0---0-4---|


Bridge
Follow the piano for the right rhythm
e ---7---7--2--7---7--0--0--4---4--2--7---7--0---0--4---4--0---0--2---|
B ---7---7--2--7---7--0--0--4---4--2--7---7--0---0--4---4--0---0--2---|
G ---8---8--3--8---8--1--1--4---4--3--8---8--1---1--4---4--1---1--3---|
D ---9---9--4--9---9--2--2--6---6--4--9---9--2---2--6---6--2---2--4---|
A ---9---9--4--9---9--2--2--6---6--4--9---9--2---2--6---6--2---2--4---|
E ---7---7--2--7---7--0--0--4---4--2--7---7--0---0--4---4--0---0--2---|


Pre Chorus
e ---------------------------------------------------------------------|
B ---------------------------------------------------------------------|
G -------------------------------3-4-----------------------------3-4---|
D ---6---6-6-6---6-6-6---6-6-6---6-6-6---6-6-6---6-6-6---6-6-6---6-6---|
A ---6---6-6-6---6-6-6---6-6-6---6-6-6---6-6-6---6-6-6---6-6-6---6-6---|
E ---4---4-4-4---4-4-4---4-4-4---4-4-4---4-4-4---4-4-4---4-4-4---4-4---|

e ---------------------------------------------------------------------|
B ---------------------------------------------------------------------|
G -------------------------------3-4-----------------------------------|
D ---6---6-6-6---6-6-6---6-6-6---6-6-6---6-6-6---6-6-6---6-6-6---6-6---|
A ---6---6-6-6---6-6-6---6-6-6---6-6-6---6-6-6---6-6-6---6-6-6---6-6---|
E ---4---4-4-4---4-4-4---4-4-4---4-4-4---4-4-4---4-4-4---4-4-4---4-4---|


Chorus 4x
e ---7---7-7---7---7---7-0---0---0-0---0---0---0-4---|
B ---7---7-7---7---7---7-0---0---0-0---0---0---0-4---|
G ---8---8-8---8---8---8-1---1---1-1---1---1---1-4---|
D ---9---9-9---9---9---9-2---2---2-2---2---2---2-6---|
A ---9---9-9---9---9---9-2---2---2-2---2---2---2-6---|
E ---7---7-7---7---7---7-0---0---0-0---0---0---0-4---|


Outro
Repeat this it and fade out or play it once and end on a B chord
e ---7---7-7---7---7---7-0---0---0-0---0---0---0-4---|
B ---7---7-7---7---7---7-0---0---0-0---0---0---0-4---|
G ---8---8-8---8---8---8-1---1---1-1---1---1---1-4---|
D ---9---9-9---9---9---9-2---2---2-2---2---2---2-6---|
A ---9---9-9---9---9---9-2---2---2-2---2---2---2-6---|
E ---7---7-7---7---7---7-0---0---0-0---0---0---0-4---|

* Lyrics *

Did they tell you, you should grow up
When you wanted to dream
Did they warn you, better shape up
If you want to succeed
I don't know about you, who are they talking to?
They're not talking to me

I'm higher than high, lower than deep
I'm doing it wrong, singing along
Go higher than high, lower than deep
Keep doing it wrong, singing along

Did I ask you for attention
When affection is what I need
Thinking sorrow was perfection
I would wallow till he told me
There's no glitter in the gutter
There's no twilight galaxy

Go higher than high (ooo)
Lower than deep (ooo)
Keep doing it wrong (ooo)
Singing along (ooo)
I'm higher than high (ooo)
Lower than deep (ooo)
Doing it wrong (ooo)
Singing along (ooo)

I'm alright, come on baby
I've seen all the demons that you've got
If you're not alright now, come on baby
I'll pick you up and take, and take you where you want
Anywhere you want
Anywhere you want
Anywhere you want
Anything you want

I'm higher than high (ooo)
Lower than deep (ooo)
Doing it wrong (ooo)
Singing along (ooo)
Higher than high (ooo)
Lower than deep (ooo)
Doing it wrong (ooo)
Singing along (ooo)

(ooo)
(ooo)
(ooo)

ĂŽnscrie-te la newsletter

Join the ranks ! LIKE us on Facebook