156 Bass Tab - Mew




From the album Frengers
Standard Tuning (E-A-D-G)

Intro/Verse
|----------------------------------|
|*------5-------7-------2------4--*|
|*-7-------5-------3-------2------*|
|----------------------------------|

Prechorus
|---------------------------------------|
|---------------------------------------|
|-4--4--4x4--2--2--2x2x2----------------|
|-------------------------5-5--5--x5x5--|

|------------|     |---------------------------------|
|------------|     |---------------------------------|
|------------|     |---------------------------------|
|-2--2---2x2-|     |-2-2-2-2-2-2-2-0-2-0-2-0-2-0-2-0-|


Chorus
|-----------------------------------------------------------|
|*---------------------------------------------------------*|
|*-4-4--4-4----------------------7-7--7-7--9---------------*|
|------------5-5--5-5--4-5-4-5----------------7-7--7-5-7-5--|

Play Verse

Play Chorus

Play Prechorus (3rd time play the following)

|-----------------------------------------------------|
|-----------------------------------------------------|
|-4--4--4x4--2--2--2x2x2------------------------------|
|-------------------------5-5-5-5-5-5-5-2-2-2-2-2-2---|

Play Chorus

Variations (play the following when he begins to sing: "Don't you just love goodbyes")

|------------------------------------------------------------|
|*----------------------------------------------------------*|
|*-4-4--4-4----------------------7-7--7-7--9----------7---6-*|
|------------5-5--5-5--4-5-4-5----------------7-7-5-7---7----|

Repeat til end
ĂŽnscrie-te la newsletter


Join the ranks ! LIKE us on Facebook