Life Is Not Distant Tab - Mew




Mew - Life is not distant.

It's pretty esay to play.

Intro:

|---------2------2-------2------2------0--------------------------------|
|-------3------3---3---3------3------3----------------------------------|
|-----4------4-------0------0------0------------------------------------|
|------------------------------------------0----------------------------|
|-----------------------------------------------------------------------|
|-----------------------------------------------------------------------|

And then it goes:

|---------2------2-------2------2------0--------------------------------|
|-------3------3---3---3------3------3----------------------------------|
|-----4------4-------0------0------0------------------------------------|
|-----------------------------------------------------------------------|
|-----------------------------------------------------------------------|
|-----------------------------------------------------------------------|

At the end in the song(Outtro):

|---------2------2-------2------2------0--------------------------------|
|-------3---3--3---3---3------3------3----------------------------------|
|-----4------4-------0------0------0------------------------------------|
|-----------------------------------------------------------------------|
|-----------------------------------------------------------------------|
|-----------------------------------------------------------------------|
ĂŽnscrie-te la newsletter


Join the ranks ! LIKE us on Facebook