Snow Brigade Bass Tab - Mew




"Snow Brigade" by Mew

From the album "Frengers" (2003)
Bass tabs by Linda (linda@nakedzombieforce.net)
Mew Bass Tabs @ http://nakedzombieforce.net


Drop D tuning: D-A-D-G

Notes follow this pattern.


Verse:
Enable to bring out the something
You want to know beneath the snow
G|-------------|
D|-------------|
A|-------------|
D|--7--3--5--0-|

In winter you're an affliction
That repeatedly defeated me
G|----------------|
D|----------------|
A|----------------|
D|--7--3--5--0--2-|


Chorus:
Because I'll find you somewhere
Show you how much I care
G|----------------|
D|----------------|
A|----------------|
D|--3--7--5--2--3-|

Know that there is no escape
From my snow brigade
G|-----------------|
D|-----------------|
A|-----------------|
D|--3--10--5--2--3-|


Verse:
Bring out the someone
You want to see for jealousy
G|----------|
D|----------|
A|----------|
D|--3--5--0-|


We all know one day you'll leave behind
Your everything
And feel the spring come
G|-------------|
D|-------------|
A|-------------|
D|--7--3--5--0-|


Chorus:
I'll find you somewhere
Show you how much I care
G|----------------|
D|----------------|
A|----------------|
D|--3--7--5--2--3-|

Know that there is no escape
From my snow brigade
G|-----------------|
D|-----------------|
A|-----------------|
D|--3--10--5--2--3-|


[Repeat x2]
G|-2-----5-2-4-0---2-|
D|---2-3---------2---|
A|-------------------|
D|-------------------|

My arms retreat
I wish they were there to hold you
G|-2-----5-2-4-0---2-|
D|---2-3---------2---|
A|-------------------|
D|-------------------|


[Repeat chorus until finished. A few lines in, this line is swapped for the first chorus line.]
G|-------------|
D|-------------|
A|-------------|
D|--3--5--2--3-|

ĂŽnscrie-te la newsletter


Join the ranks ! LIKE us on Facebook