Electric Feel Acoustic Tab - MGMT






First of all this is an acoustic cover.

I did not write these tabs. I found them on youtube from a guy with the username 
and thought these tabs needed to be on here. There are no accurate tabs to this song because 
is no acoustic version done by MGMT.


CAPO ON THE 3RD FRET.
(intro)

E----------0-3---0--------------------0------------------|E
B-1----1-3-----3---1-3---1--3-----3-1---3-1--3---1-------|B
G----0-----------------2-------0---------------2---0-1---|G
D---2-------------------------0--------------------------|D
A-0-------------------------------0----------------------|A
E----------0---1------------3---------0---1--------------|E

VERSE/CHORUS (watch his video for timing/rhythm or make it your own way)
E---0---------------! E-------------------------|
B---1-----0----1----! B--0--1--0---1------------|
G---2-----0----2----! G--0--0--0---2------------|
D---2-----2----3----! D--0--2--2---3------------|
A---0-----2----3----! A--x-----2---3------------|
E---------0----1----! E--3-----0---1------------|

Bridge
E--0-------!  E------------------------|
B--1---0---!  B------------------------|
G--0---0---!  G----0-----0-------------|
D--2---0---!  D-0h2---0h2------0-------|      (x 3)
A--0---x---!  A-------------0h2--------|
E------3---!  E------------------3-3---|


E--------------------------|
B--5-5-5-5-5-5-5-5-5-5-----|
G--5-5-5-5-5-5-5-5-5-5-----|
D--5-5-5-5-5-5-5-5-5-5-----|
A--8-8-8-8-8-8-8-8-8-8-----|
E--------------------------|

ĂŽnscrie-te la newsletter


Like us on Facebook