Kids ver4 Tab - MGMT






Kids By MGMT
------------
BY Guitar Guy
You Can Work out how the Rhythm goes by listening to the song.
This is the keyboard part for guitar.

E-------------14--|-16-14-----------|-----------------|-------------------|
B-------14-17-----|-------17-14~~~--|-----------------|-------------------|
G-14-16-----------|-----------------|-16~~~-----------|-------------------|
D-----------------|-----------------|-----------------|-------------------|
A-----------------|-----------------|-----------------|-------------------|
E-----------------|-----------------|-----------------|-------------------|

E-------------14--|-16-14-----------|-----------------|-------------------|
B-------14-17-----|-------17-14~~~--|-----------------|-------------------|
G-14-16-----------|-----------------|-----------------|-------------------|
D-----------------|-----------------|-----------------|-------------------|
A-----------------|-----------------|-----------------|-------------------|
E-----------------|-----------------|-----------------|-------------------|

E-------------14--|-16-14-----------|-----------------|-------------------|
B-------14-17-----|-------17-14~~~--|-----------------|-------------------|
G-14-16-----------|-----------------|-16~~~-----------|-------------------|
D-----------------|-----------------|-----------------|-------------------|
A-----------------|-----------------|-----------------|-------------------|
E-----------------|-----------------|-----------------|-------------------|

E-------------14--|-16-14-----------|-----------------|-------------------|
B-------14-17-----|-------17-14~~~--|-----------------|-------------------|
G-14-16-----------|-----------------|-----------------|-------------------|
D-----------------|-----------------|-----------------|-------------------|
A-----------------|-----------------|-----------------|-------------------|
E-----------------|-----------------|-----------------|-------------------|

E-------------14--|-16-14-----------|-----------------|-------------------|
B-------14-17-----|-------17-14~~~--|-----------------|-------------------|
G-14-16-----------|-----------------|-16~~~-----------|-------------------|
D-----------------|-----------------|-----------------|-------------------|
A-----------------|-----------------|-----------------|-------------------|
E-----------------|-----------------|-----------------|-------------------|

E-----------------|-----------------|-----------------|-------------------|
B-------14--------|-----------------|-----------------|-------------------|
G-14-16----16-14--|-16-14----14~~~--|-----------------|-------------------|
D-----------------|-------16--------|-----------------|-------------------|
A-----------------|-----------------|-----------------|-------------------|
E-----------------|-----------------|-----------------|-------------------|

ĂŽnscrie-te la newsletter


Like us on Facebook