Siberian Breaks Chords - MGMT






-------------------------------------------------------------------------------
     Siberian Breaks - MGMT
-------------------------------------------------------------------------------
Tabbed by: Yam Rabinowitz
Email: yamski_b@yahoo.com

Tuning: standard

Intro:

    Am  Em
e|---0---0-----|
B|---1---0-----|
G|---2---0-----|
D|---2---2-----|    X2
A|---0---2-----|
E|---0---0-----|

    A#m B#m G#m
e|---x---x---4-|
B|---11--12--4-|
G|---10--13--4-|
D|---11--12--6-|    X2
A|---x---x---6-|
E|---x---x---4-|

This goes on untill 1:20~
peace






Like us on Facebook