Finally Bass Tab - Mighty Mighty Bosstones




Artist: Mighty Mighty Bosstones
Song: Finally
Album: Pay Attention
Tabbed by: Ingramosch

> = strum
 = slide down

INTRO:

G ---------------|
D ---------------|
A ---------------|
E -2-3----2-3--|

VERSE:

G ----------|
D ----------|
A --------3-|
E -2-3--1---|

BRIDGE:

G -------------------------------------|
D -------------------------------------|
A -----------3>--1>------------3>--1>--|
E -2-3>--1>----------2-3>--1>----------|

BRIDGE VARIATION:

G -------------------------------------|
D -------------------------------------|
A --------3>--1>----------3>-----3-3-3-|
E -3>--1>---------3>--1>-----1-1-------|

CHORUS:

G ------------------------------------------------------------------|
D ------------------------------------------------------------------|
A -0>-----------3>--1>----------3>--0>--2>--0>--3>----------3>--1>--|
E ------3>--1>----------3>--1>----------------------3>--1>----------|

FINAL BRIDGE:

G -----------------------------|
D -----8-8-7-5-7---------------|
A ----------------3>--1>-------|
E -3>---------------------2-3-|

INTRO x1
VERSE x4
BRIDGE x1
VERSE x2
VERSE (strum) x2
CHORUS x1
BRIDGE x1
VERSE x1
BRIDGE x1
VERSE x2
VERSE (strum) x1
CHORUS x1
BRIDGE x1 (let out the second E2)
BRIDGE x1 (without playing any E2)
BRIDGE VARIATION x1
CHORUS x1 (let out the A0 at the beginning)
FINAL BRIDGE x1

ĂŽnscrie-te la newsletter


Join the ranks ! LIKE us on Facebook