In Recognition Tab - Miss May I






[In Recognition]
[Monument]
[Miss May I]

Tuning: Drop C (CGCFAD/Drop D 1 Step Down)
joshuaoliveira@hotmail.com

[Riff 1] - [00:00] - [00:51-----------------------------------------| - [4x]
- -------------0-------------------------------0--------------------|
- ---------6-----------6-------------------6-----------6------------|
- -------------------------7-------------------------------7--------|
- -----7-----------------------7-------7-----------------------7----|
- ------------------------------------------------------------------|
- -0-------------------------------0--------------------------------|

- -------------0---------------------------------0-----------------|
- -------6---------------------------------6-----------------------|
- -----------------------------------------------------------------|
- -----------------------------------------------------------------|
- -8---8---------------------------7---7---------------------------|
- -----------------------------------------------------------------|

----------------------------------------------------------------------------

[Riff 2] - [00:51] - [00:58]
- -----------------------------------------------------|
- -----------------------------------------------------|
- -----------------------------------------------------|
- -------------10------------------------------12------|
- -----8-------------------8-----------10--------------|
- -8-------8-----------8-------8---10------10----------|

----------------------------------------------------------------------------

[Riff 3] - [00:58] - [01:23]
- -----------------------------------------------------------------|
- -----------------------------------------------------------------|
- -----------------------------------------------------------------|
- -1-------3-------5-------8--






Like us on Facebook