Wild Pack Of Family Dogs (ver3) Tab - Modest Mouse






-------------------------------------------------------------------------------
        Wild Pack of Family Dogs
-------------------------------------------------------------------------------
Tabbed by:Russ
Email:smeatloaf@gmail.com

Tuning: Standard

This is a tweak of some of the existing tabs.  I watched Mr. Brock play this in concert 
the 4th row, so I'm pretty sure about it.

    C     G
e|--------------------------------------------------------------------------|
B|--------------------------------------------------------------------------|
G|-5-5-5--------5-5-5-4-5-5/75-4-0-----------------------------------------|
D|-5-5-5-5-5----5-5---------------------------------------------------------|
A|-3-3-3-5-5----3-3---------------------------------------------------------|
E|-------3-3----------------------------------------------------------------|

Just Alternate Between the C and G power chords for the whole song, adding the little 
on the G string when there ain't no singin.

| /  slide up
|   slide down
| h  hammer-on
| p  pull-off
| ~  vibrato
| +  harmonic
| x  Mute note
===============================================================================

ĂŽnscrie-te la newsletter


Like us on Facebook