Youre The Good Things (ver2) Tab - Modest Mouse






You're The Good Things
Modest Mouse
Everywhere And His Nasty Parlour Tricks

I didnt tab the strumming out. If you've heard it you can figure it out.

Intro

e ------------------------------------------------|
B ------------------------------------------------|
G ------------------4-----------------------------|
D ------------------2-----------------------------|
A -9------9-99------4-----------------------------|
E ---11-9------11---------------------------------|


Verse

e ------------------------------------------------|
B ------------------------------------------------|
G -------------------------4----------------------|Repeat x6
D -------------------------2----------------------|
A -9------9------9---------4----------------------|
E ---11-9---11-9---11-----------------------------|


Chorus

e ------------------------------------------------|
B ------------------------------------------------|
G --6---9-/--6-/--4------------------------------|
D --4---7-/--4-/--2------------------------------|
A --6---9-/--6-/--4------------------------------|
E ------------------------------------------------|

The last time
e ------------------------------------------------|
B ------------------------------------------------|
G --6---9-~--------------------------------------|
D --4---7-~--------------------------------------|
A --6---9-~--------------------------------------|
E ------------------------------------------------|

The solo is the intro with a few imporvised notes on low E on the 7th fret


then repeat the whole thing

ĂŽnscrie-te la newsletter


Like us on Facebook