Christimas Steps Bass Tab - Mogwai




-----------------------------------------------------------------
SCHRISTIMAS STEPS - MOGWAI
-----------------------------------------------------------------

Tabbed By : hit321 (Bernardo)
e-mail: biker_bmc@hotmail.com

Porto Alegre - RS (Brazil)
- - - - - - - - - - - - - -


Tuning:

G|-----------------------|-------------------------------------|
D|----------6------------|------2------------------------------|
A|----4----------4----0--|----2------2----4--------------------|
E|-------------------------------------------------------------|

                        OR

G|-----------------------|-------------------------------------|
D|------------6----------|-------------6-----2-----2-----------|
A|--------4--------------|---------4------4-----4--------------|
E|-----------------------|-------------------------------------|
G|---0h2-----------------|----0h2------------------------------|

"LISTENING TO THE MUSIC and TRY THIS"

Is something of type, isn't exactly this.



| / slide up
|  slide down
| h hammer-on
| p pull-off
| ~ vibrato
| + harmonic
| x Mute note

ĂŽnscrie-te la newsletter


Join the ranks ! LIKE us on Facebook