Killing All The Flies Tab - Mogwai




Author: Mogwai
Song: killing all the flys
Album: happy songs for happy people
tabbed by: David Lino aka sponj (mail: sponj13@hotmail.com)

comment: this song is quite simple. the guitars play the same thing all over the song. 
In the chorus it may seam like a guitar is changing chords but no, it's only the bass.
any comments mail me or add me to msn






Verse:

guitar 1

|-----0------0------------------------0------0--------------2-----|
|--------------------3-------3----------------------3---------3-0-|
|-----------------------------------------------------------------|
|-----------------------------------------------------------------|
|--3----3-2----2---------2-------2-3----3-2-----2---------2-------|
|----------------0-----0--------------------------0-----0---------|

guitar 2

|--------------------------------|
|--------------------------------|
|--------------------------------|
|--5------5-2--------------------|
|--3----------5-3------5-3-2-0---|
|------------------------------0-|


pre-chorus:

guitar 2

|-----------|
|-----------|
|-----7----7|
|-5555-5555-|
|-----------|
|-----------|

chorus: (heavy distortion bouth guitars)

guitar 1

|------|
|------|
|-77777|
|-55555|
|-55555|
|------|

guitar 2

|------|
|------|
|------|
|-22222|
|-22222|
|-00000|

Find the structure yourself!

Peace

ĂŽnscrie-te la newsletter


Join the ranks ! LIKE us on Facebook