Tracy Bass Tab - Mogwai




----------------------------------------------------------------------------
     TRACY - Mogwai
----------------------------------------------------------------------------

Tabbed By : Stephen Healy
e-mail: steeeeeve13@hotmail.com

Tuning: Standard EADG

Intro (also simple version to play song)
G|--0--------p3-----------------------------------------------------------|
D|-------------0--------2-------------------------------------------------|
A|-------------------------------3----------------------------------------|
E|------------------------------------------------------------------------|

Then gets a bit advanced (as the bassist tends to, again, i can only hear some of it)
G|--0--------p3-----------0--2-0----0--2--0-------------------------------|
D|-------------0------0-2--2----2-----------------------------------------|
A|-------------------------------3---3------------------------------------|
E|------------------------------------------------------------------------|

Sometimes he will also go
G|--0--------/7-----------------------------------------------------------|
D|--------------------2---------------------------------------------------|
A|-----------------------------3------------------------------------------|
E|------------------------------------------------------------------------|
(follow timing and play notes accordingly)

Use these structures to figure out the song

| /  slide up
|   slide down
| h  hammer-on
| p  pull-off
| ~  vibrato
| +  harmonic
| x  Mute note
============================================================================

ĂŽnscrie-te la newsletter


Join the ranks ! LIKE us on Facebook