Space Lord Chords - Monster Magnet






Monster Magnet - Space Lord
Submitted By: Misery
EMail: kaiowas@swirve.comtuning: E, A, D, G.

(guitar intro)
Verse:
G|---------------------------||
D|-----------------------4-2-||
A|-4-4-2-4-------4-4-2-4-----||
E|---------0-2-0-------------||

Chorus:
G|---------------------------||
D|---------4-2---------------||
A|-4-4-2-4-------------------||
E|---------------------------||

Interlude:
G|---------------------------||
D|---------------------------||
A|---------------------------||
E|-9~-~-~-4~-~-~-------------||

ĂŽnscrie-te la newsletter


Like us on Facebook