Wonders Never Cease Tab - Morcheeba




Morcheeba - Wonders Never Cease
by GABE

Sorry that i did not set the right distance between the notes... that's my first 
tab so don't complain...

~ = slide
^ = bend
' = pull off

Intro

E2 - 5 - 0 -  - :|  4x
H2 - 5 - 0 -  - :|
G2 - 6 - 1 -  - :|
D4 - 7 - 2 -  - :|
A4 - 7 - 2 -  - :|
E2 - 5 - 0 -  - :|

What do you feel....

E2 - 5 - 0 -  - :|  4x
H2 - 5 - 0 -  - :|
G2 - 6 - 1 -  - :|
D4 - 7 - 2 -  - :|
A4 - 7 - 2 -  - :|
E2 - 5 - 0 -  - :|

There are worlds out there...

E4 -  - 7 -  - :|  2x
H4 -  - 7 -  - :|
G4 -  - 6 -  - :|
D6 -  - 9 -  - :|
A6 -  - 9 -  - :|
E4 -  - 7 -  - :|

Going on a journey...

E12 - 10 - 8  - - :|
H12 - 10 - 8  - - :| 4x
G13 - 11 - 9  - - :|
D14 - 12 - 10 - - :|
A14 - 12 - 10 - - :|
E12 - 10 - 8  - - :|

All that we've been through...

E2 - 5 - 0 -  - :|  4x
H2 - 5 - 0 -  - :|
G2 - 6 - 1 -  - :|
D4 - 7 - 2 -  - :|
A4 - 7 - 2 -  - :|
E2 - 5 - 0 -  - :|

There are worlds out there...

E2 - 5 - 0 -  - :|  4x
H2 - 5 - 0 -  - :|
G2 - 6 - 1 -  - :|
D4 - 7 - 2 -  - :|
A4 - 7 - 2 -  - :|
E2 - 5 - 0 -  - :|

Going on a journey...

E12 - 10 - 8  - - :|
H12 - 10 - 8  - - :| 4x
G13 - 11 - 9  - - :|
D14 - 12 - 10 - - :|
A14 - 12 - 10 - - :|
E12 - 10 - 8  - - :|

SOLO:

E      ------12----------------------------------------------------------------|
H      -----------15-15--------------------------------------------------------|
G      ------------------------12-12-12-12-12-12-------------------------------|
D      --------------------14---------------------14--12------12-12--12'14-----|
A      ---------------------------------------------------14-------------------|
E 12~~~~0~12--------------------------------------------------------------------|

E----------------------------------------------------------------------------------------|
H12-14-12-14-12--------------------------------------------------------------------------|
G12-14-12-14-12-------------12-----------------------------------------------------------|
D---------------14-12-12'14-------12-----------------------------------------------------|
A------------------------------------12----12----12--12^13^12^10----------12'10----------|
E---------------------------------------15----15-----------------12-10-12-------12-10-12-|


Going on a journey...

E12 - 10 - 8  - - :|  till end, mixed with electronic stuff...
H12 - 10 - 8  - - :|
G13 - 11 - 9  - - :|
D14 - 12 - 10 - - :|
A14 - 12 - 10 - - :|
E12 - 10 - 8  - - :|

ĂŽnscrie-te la newsletter


Join the ranks ! LIKE us on Facebook