World Looking In Bass Tab - Morcheeba




Artist: Morcheeba
Track: World Looking In
Album: Fragments Of Freedom

   ~~~~~~~~~~~~~~~~~~~~~~~~  
Tabbed by: Scotia  scotia@fatbassline.co.uk  27/03/01
   ~~~~~~~~~~~~~~~~~~~~~~~~


0:21 Intro
G-----------------|----------------------------------------------|
D---vocal,-drums--|----------------------------------------------|
A---&-scratchin---|--7----------5--7---------x9--7---------5--7--|
E-----------------|------7-7---7--------7-7---------7-7---7------|

Rest for 4

0:32 Verse       x4
G------------------------------||
D-----------------------------*||
A--7----------5--7--------x9--*||
E------7-7---7-------7-7-------||


0:54 Chorus
G---------------------------------------------------------||
D--------------------------------------------------------*||
A--7--7--5--5-----------------5------------x9--7---------*||
E--------------3-3--7--5-5---7---0---7--7---------7--7----||


1:17 Synth    x4                            
G-------------||     This part is played on keyboard, here arranged
D------------*||     for bass. It pops up now and again, playing with
A------7-7---*||     the bass. During this part, the bass drops out.
E---0---------||                                                        


1:28 Verse (only one repeat)

1:39 Chorus

2:01 Bridge  x4
G-------------------------||
D------------------------*||
A--------------5--5--5---*||
E---5---3--3--------------||


2:23 Synth (bass tacet)

2:34 Intro (Including rest for 4)

2:46 Chorus

3:08 Verse x8

3:53 Bass tacet
ĂŽnscrie-te la newsletter


Join the ranks ! LIKE us on Facebook