Journey To Reconciliation Bass Tab - MORTIFICATION




Song: Journey to Reconciliation
Artist: Mortification
Album: Break the curse/Mortification
Put together by: Christian Fredriksson
E-mail: christ_alpha@hotmail.com

A cool doomy song with wonderful lyrics. If anyone knows the 
faster part Id like to hear about it. This may not be
completely
right but its as close as I could figure out. 
- Zeph. 3:17- Walk in peace, everyone, and praise God for
Steves healing.


Keep it grinding slowly...


intro:


G------------------------------
D------------------------------
A------------------------------
E-0-0-0-0-0-0-0-0-0--------


 (Repeat 4 times)


G--------------------------------------------------------------
D--------------------------------------------------------------
A--------------------------------------------------------------
E--0---7---5-3-1--0---7---5-3-1--0---7---5-3-1---------


verse 1:


G------------------------------ 
D------------------------------
A------------------------------
E--0---7---5-3-1------------- 
His eyes could hardly 
see the long
road... 


G------------------------------ 
D------------------------------
A------------------------------
E--0---7--8-5-3-1------------- 
He was just a man, but he
was God!


verse 2:


G--------------------------------------------------------------
D--------------------------------------------------------------
A--------------------------------------------------------------
E--0-0-0--5-5-5--0-0-0--3---0-0-0--5-5-5--0-0-0-1----
This man was not guilty...


verse 3:


G------------------------------
D------------------------------
A------------------------------
E--3-4-3-4-0-2--2--5--0-3--
The journey continued
to the place...


G------------------------------
D------------------------------
A------------------------------
E--3-4-3-4-0-2--5--0-3-----
Step by step He staggered 
on...
ĂŽnscrie-te la newsletter


Join the ranks ! LIKE us on Facebook