Metal Crusade Tab - MORTIFICATION




Metal Crusade by:
Mortification: Hammer of God
Metal Blade Records inc. and 
        Rowe Productions (A movement of 
        extreme power)
Distributed by Diamante Music Group, 
Newport Beach, CA.
Tabbed by: Bob Barker

CD is tuned in D so I would detune your guitar and play everything 2 frest up.
Listen to "hammer of god", and "Medley"

...bass harmonics

Guitar intro:
e-----------------------------------|
b-----------------------------------|
g-----------------------------------|
d-----------------------------------|
a--5-4------5-4---7----5-4----------|
E------5/7------5----------5/7----2-|

e-----------------------------------|
b-----------------------------------|
g-----------------------------------|
d-----------------------------------|
a--5-4------5-4---7----5-4----------|
E------5/7------5----------5/7------|

e----------------------------|
b----------------------------|
g----------------------------|
d----------------------------|   2x
a--9-7---6-7-6---9--7-6---9--|
E------7-------7--------7----|

e-----------------------------------|
b-----------------------------------|
g-----------------------------------|
d-----------------------------------|
a--5-4------5-4---7----5-4----------|
E------5/7------5----------5/7----2-|


e-----------------------------------|
b-----------------------------------|
g-----------------------------------|
d-----------------------------------|
a--5-4------5-4---7----5-4--9-------|
E------5/7------5----------5--------|


Verse 1:
e------------------------------------------------
b------------------------------------------------
g--6--6-6--6-6-6--6-6-6--6-6-6--6-6-6--6-6-4-4-4
d--6--6-6--6-6-6--6-6-6--6-6-6--6-6-6--6-6-4-4-4
a--4--4-4--4-4-4--4-4-4--4-4-4--4-4-4--4-4-2-2-2
E------------------------------------------------


e------------------------------------------------
b------------------------------------------------
g--6--6-6--6-6-6--6-6-6--6-6-6--6-6-6--6-6-2-2-2
d--6--6-6--6-6-6--6-6-6--6-6-6--6-6-6--6-6-2-2-2
a--4--4-4--4-4-4--4-4-4--4-4-4--4-4-4--4-4-
ĂŽnscrie-te la newsletter


Join the ranks ! LIKE us on Facebook