Little Geneva Tab - Muddy Waters




OPEN G TUNING - D G D G B D
Slide necessary.

d|--/12-12-12-12-12-12-12-12-11--|-----------------------------------|
B|--------------------------------|--12-12-12-12-12-12-12--------12--|
G|--------------------------------|-----------------------12~~---12--|
D|--------------------------------|-----------------------------------|
G|--------------------------------|-----------------------------------|
D|--------------------------------|-----------------------------------|

d|--/12-12-12-12-12-12-12-12--/14-14-14-14-14-14-/15--15--15--15-|
B|---------------------------------------------------------------|
G|---------------------------------------------------------------|
D|---------------------------------------------------------------|
G|---------------------------------------------------------------|
D|---------------------------------------------------------------|

d|-----------------------------------------------|
B|-----------------------------------------------|
G|-----------------------------------------------|
D|--/7~~~--/7~~--/7-/7-/7-----0-/3--0-0-0-------|
G|-----------------------------------------------|
D|-----------------------------------------------|

d|----------------------------------|----------------------|
B|----------------------------------|----------------------|
G|----------------------------------|----------------------|
D|-------------/5~-0--/3-0--/3-0---|--/7~--7-7--7-7--7-7--|
G|--0--/3-0-0-----------------------|----------------------|
D|----------------------------------|----------------------|

---------------------------------------------|
---------------------------------------------|
--/7--7-7-7-7-7-7-7--0-/5--5-5-5-5-5-5-5-5--|
---------------------------------------------|
---------------------------------------------|
---------------------------------------------|

   this is the turnaround riff
d|---------------------------------|
B|--0-----0-----0-----0------------|
G|--0-----0-----0-----0------------|
D|--3--3--2--2--1--1--0------0--0--|
G|-----------------------/3--------|
D|---------------------------------|

G                               C
I Was Standin' in my Kitchen,  Lookin' WAY out 'cross the field [fill1]

G*                              C
I was Standin' in my Kitchen,  Lookin' WAY out 'cross the field [fill1]

D                                      C
I thought I heard, I thought I heard,  MY little Geneva a callin' me [turnaround riff]

  this is fill 1
|-------------------------------------------|
|-------------------------------------------|
|--/12---/3-/3---0-3-0--0---12-12--10--12--|
|--/12--------------------------------------|
|-------------------------------------------|
|-------------------------------------------|

I'm only goin' to tab the first verse because Muddy Waters' little Open G slide tunes 
great springboards for slide improv, and great for jamming.

ĂŽnscrie-te la newsletter


Join the ranks ! LIKE us on Facebook