Manish Boy Tab - Muddy Waters






Muddy Waters - Mannish boy

Tab:
E|------------------|-----------------|-------------------|
B|-s10--------------|-----------------|-------------------|
G|-----------9p7s2--|---------7-b-8---|-8r7p5-------------|
D|------------------|-----------------|-------7(5)(7)-----|
A|------------------|-----------------|-------------------|
E|------------------|-----------------|-------------------|
Time|--1-e--2-e-3-e-4-e|-1-e-2-e-3-e-4-e-|-1---e-2-e---3e-4e-|

|-------------|-------------|---------------------|
|-------------|-------------|---------------------|
|-------------|-------------|----7-b-9-----9-r-7--|
|-------------|-------------|---------------------|
|-------------|-------------|---------------------|
|-------------|-------------|---------------------|
|-1e-2e-3e-4e-|-1e-2e-3e-4e-|-1-e-2-e-3-e--4--e---|

|------------------|------------5---------|-----------------|
|-8----------------|----------------------|-----------------|
|----7b8p5---------|-7b8r7p5--------------|-----------------|
|----------7-------|---------7------------|-----------------|
|------------------|------------------5--3|-------------5--3|
|------------------|----------------5---5-|-5---------5---5-|
|-1--e-2-e-3-e-4-e-|-1----e--2--e-3-e-4-e-|-1-e-2-e-3-e-4-e-|



|-----------------|-----------------|
|-----------------|-----------------|
|-----------------|-----------------|
|-----------------|-----------------|
|-------------5--3|-------------5--3|
|-5---------5---5-|-5---------5---5-| 
|-1-e-2-e-3-e-4-e-|-1-e-2-e-3-e-4-e-|

Repeat till end of the song

That's all, hope u like it
mail me @ mvhnederend_10@hotmail.com






Like us on Facebook