Thistle And Weeds Intro Tab - Mumford And Sons






this one is better than my first one..
soz i didn't put lines on it!=,o

                  
                    
                                         x2 
E  |----------------------------------|
A  |----------------------------------|
F# |-----6-6--------------------------|
D  |------------5-5----3-3----5-5-----|
A  |----------------------------------|
D  |----------------------------------|


E  |----------------------------------|
A  |----------------------------------|
F# |----------------------------------|
D  |------0-0-0-0-0-0-0-0-------------|
A  |----------------------0-----------|
D  |----------------------------------|


repeat it for the first verse and if it does not sound right you can blame me!  =,P






Like us on Facebook