Substitute Creature Tab - Municipal Waste






                   |-------------Municipal Waste-------------|
                   |-----------"Substite Creature"-----------|
                   |---From the 2003 album "Waste 'Em All"---|



Tuning: Standard (EADGBe)

 (0:00)
|----------------------------------------|
|----------------------------------------|
|---4-4-4------------------6--5---------| x4
|---4-4-4--3---3-3--4-4-4--6--5--54/5--|
|---2-2-2--3---3-3--4-4-4--4--3--54/5--|
|----------1---1-1--2-2-2---------32/3--|

 (0:16)
|-----------------------------------|
|-----------------------------------|
|-----------------------------------|
|-6-5-----6-5-----6-5-----6-5-------|
|-4-3-4/5-4-3-4/5-4-3-4/5-4-3-4/5---|
|-----2/3-----2/3-----2/3-----2/3---|

 (0:20)
|----------------------------------------|
|----------------------------------------| x4
|---4-4-4------------------6--5---------| last 2 times use palm
|---4-4-4--3---3-3--4-4-4--6--5--54/5--| muting
|---2-2-2--3---3-3--4-4-4--4--3--54/5--|
|----------1---1-1--2-2-2---------32/3--|

 (0:33)
|-----------------------------------|
|-----------------------------------|
|-----------------------------------|
|-6-5-----6-5-----6-5-----6-5-------|
|-4-3-4/5-4-3-4/5-4-3-4/5-4-3-4/5---|
|-----2/3-----2/3-----2/3-----2/3---|

(Drum break)

 (0:40)
|------------------------------------|
|------------------------------------|
|------------------------------------|
|-6-5-----6-5-----6-5------6-5-------|
|-4-3-4/5-4-3-4/5-4-3-4/5--4-3-4/5---|
|-----2/3-----2/3-----2/3------2/3---|

 (0:43)
|---------------------------------------|
|---------------------------------------|
|---4-4-4-----------------6--5---------| x2
|---4-4-4--3---3-3--4-4-4-6--5--54/5--|
|---2-2-2--3---3-3--4-4-4-4--3--54/5--|
|----------1---1-1--2-2-2--------32/3--|
|
|(2nd time only)
|--14~~~~~~---(wide vibrato using tremolo arm)--|
|-----------------------------------------------|
|-----------------------------------------------|
|-----------------------------------------------|
|-----------------------------------------------|
|-----------------------------------------------|

 (0:50)
|-----------------------------------------|
|-----------------------------------------| x2
|---4-4-4------------------6--5----------| (end on * 2nd time)
|---4-4-4--3---3-3--4-4-4--6--5--54*/5--| 
|---2-2-2--3---3-3--4-4-4--4--3--54*/5--|
|----------1---1-1--2-2-2---------32*/3--|

 (0:58)
|-----------------------------------|
|-----------------------------------|
|-----------------------------------|
|-6-5-----6-5-----6-5-----6-5-------|
|-4-3-4/5-4-3-4/5-4-3-4/5-4-3-4/5---|
|-----2/3-----2/3-----2/3-----2/3---|






Like us on Facebook