Delores Bass Tab - MxPx




MxPx "delores" (the hidden track on teenage politics)

Intro/Outro
g---------------------------------------------
d---------------------------------------------
a-545454545454545-----------------------------
e---------------------------------------------

Verse
g---------------------------------------------
d---------------------------------------------
a-5-----5--------------------------------------
e--5-3-5-5-3-5------------------------------------

Chorus x2
g---------------------------------------------
d---------------------------------------------
a---5---2-------------------------------------
e-3---5---------------------------------------

"1,2,3, go!" x4
g---------------------------------------------
d---------------------------------------------
a--5------------------------------------------
e---5-3-5-------------------------------------

Pre-Outro
g---------------------------------------------
d---------------------------------------------
a-5----5--------------------------------------
e--3-5--3-5-----------------------------------

great song. have fun with it kids. send love letters to 
brettromero@hotmail.com

ĂŽnscrie-te la newsletter


Join the ranks ! LIKE us on Facebook