Its Alright Tab - MxPx






-----------------------------------------------------------------
It's Alright - MxPx
-----------------------------------------------------------------
Tabbed by: Bair
Email: bair_morritt@hotmail.com

Tuning: Standard

Intro:
e|---------------------|
B|---------------------|
G|--7-7-7-7-77---------|
D|--7-7-7-7-77---------|
A|--5-5-5-5-55---------|
E|---------------------|

Verse:
e|-----------------------------------------------|
B|-----------------------------------------------|
G|------------44444444--55555555--77777777-------|
D|--55555555--44444444--55555555--77777777-(X2)--|
A|--55555555--22222222--33333333--55555555-------|
E|--33333333-------------------------------------|
"There is no map, there are no signs...."

Pre-Chorus:
e|------------------------------------------|
B|------------------------------------------|
G|--9----7-------5555------5555--9----7-----|
D|--9----7--5555-5555-5555-5555--9----7-----|
A|--7----5--5555-3333-5555-3333--7----5-----|
E|----------3333------3333------------------|
"Everyone here has been invited to go...."

e|------------------------------------------------|
B|------------------------------------------------|
G|-------5555------5555-------99999999--77777777--|
D|--5555-5555-5555-5555-(X2)--99999999--77777777--|
A|--5555-3333-5555-3333-------77777777--55555555--|
E|--3333------3333--------------------------------|
"Unknown...into the unknown"   "Into the unknown...."

Chorus:
e|------------------------------------------------|
B|------------------------------------------------|
G|-------5555------5555------5555-7777-5555-------|
D|--5555-5555-5555-5555-5555-5555-7777-5555-(X4)--|
A|--5555-3333-5555-3333-5555-3333-5555-3333-------|
E|--3333------3333------3333----------------------|
"It's alright. It's alright. It's alright. we can...."

Post-Chorus:
e|-------------------------|
B|-------------------------|
G|-------5555--777777------|
D|--5555-5555--777777------|
A|--5555-3333--555555------|
E|--3333-------------------|

-Then Verse (PM)
-Then Post-Chorus
-Then Chorus (X2)

Outro riff:
e|--------7-8-7-5-5-7------------|
B|--8---8------------------------|
G|---------------------(X8)------|
D|-------------------------------|
A|-------------------------------|
E|-------------------------------|

----------------------------------------------------------------------------
Lyrics:

There is no map, there are no signs,
We're on our way, we're crossing lines
Strap on your boots, go pack your bags,
No time to rest, no time to lag,

And you know, everyone here has been invited to go
Whoa oh whoa oh oh
And you know, we're on our way,
Into the unknown, into the unknown, into the unknown
whoa oh whoa oh oh

It's alright, it's alright
It's alright we can travel by the moonlight
It's alright, it's alright
It's alright we can travel through the twilight
It's alright, it's alright
It's alright we can travel by the moonlight
It's alright, it's alright
It's alright we can travel through the twilight

This life is good, the road is clear,
It's time to shift into high gear
Everything we're passing fades,
It's what inside our hearts that stays

And you know, everyone here has been invited to go
Whoa oh whoa oh oh
And you know, we're on our way,
Into the unknown, into the unknown, into the unknown
whoa oh whoa oh oh

It's alright, it's alright
It's alright we can travel by the moonlight
It's alright, it's alright
It's alright we can travel through the twilight
It's alright, it's alright
It's alright we can travel by the moonlight
It's alright, it's alright
It's alright we can travel through the twilight
It's alright, it's alright
It's alright we can travel by the moonlight
It's alright, it's alright
It's alright we can travel by the moonlight

Travel by the moonlight
Travel by the moonlight

ĂŽnscrie-te la newsletter


Like us on Facebook