Iris Tab - New Found Glory






-------------------------------------------------------------------------------
     Iris (cover)- New Found Glory
-------------------------------------------------------------------------------
Tabbed by: The Mizfit
Email: netskid1290@optonline.net

This is my first tab by ear so its probably not perfect but it sounds right to me

Iris (Goo Goo Dolls Cover)
www.myspace.com/newfoundglory
Album: From the Screen to your stereo vol. 2
New Found Glory

Tuning: Standard

Intro

Guitar 1

e|-------------------------------------------------------------|
B|-------------------------------------------------------------|
G|--7-------6------6--7---------------------7-7-7-7------------|
D|--7-x8----6-x8---6--7-----5------4-4-4----7-7-7-7------------|   X2
A|--5-------4------4--5-----5-x8---4-4-4----5-5-5-5------------|
E|--------------------------3------2-2-2-----------------------|

Guitar 2
e|---------------------------------------------------------------------|
B|---------------------------------------------------------------------|
G|--7-7-7-7------6-6-6-6----6--7--------------------------7-7-7-7------|
D|--x-x-x-x------x-x-x-x----x--x------5-5-5-5----4-4-4----x-x-x-x------| X2
A|--5-5-5-5------4-4-4-4----4--5------x-x-x-x----x-x-x----5-5-5-5------|
E|------------------------------------3-3-3-3----2-2-2-----------------|

Verse

Guitar 1                _____________________________________________________
e|---------------------------------------------------------------------------|
B|---------------------------------------------------------------------------|
G|--7---7-7-7-7----------7----7-7-7-7-----6---6-6-6-6-----7---7-7-7-7--------|
D|--x---x-x-x-x--X11-----x----x-x-x-x-----x---x-x-x-x-----x---x-x-x-x--------|
A|--5---5-5-5-5----------5----5-5-5-5-----4---4-4-4-4-----5---5-5-5-5--------|
E|---------------------------------------------------------------------------|
____Ending 1_____
e|---------------|------------------------------------|
B|---------------|------------------------------------|
G|--7---7-7-7-7--|----7---7-7-7-7---------------------|
D|--x---x-x-x-x--|----x---x-x-x-x--X11----------------|
A|--5---5-5-5-5--|----5---5-5-5-5---------------------|
E|---------------|------------------------------------|
                                              
Guitar 2
Let ring
e|-------------------------------------------------|
B|-------------------------------------------------|
G|--7~------------------------7~-------------------|
D|--7~------------------------7~-------------------|
A|--5~------------------------5~-------------------|
E|-------------------------------------------------|

Pre Chorus part 
("I just don't want to miss you tonight")
("you bleed just to know your alive")

Guitars 1 & 2                                                Pickslide
e|--------------------------------------------------------------//------|
B|--------------------------------------------------------------//------|
G|--------------------------------------------------------------//------|
D|---9---9-9-9-9------7---7-7-7-7-----5---5-5-5-5-5-5-5-5-------//------|
A|---9---9-9-9-9------7---7-7-7-7-----5---5-5-5-5-5-5-5-5-------//------|
E|---7---7-7-7-7------5---5-5-5-5-----3---3-3-3-3-3-3-3-3-------//------|
         * * * *          * * * *         * * * * * * * *         

Chorus
Guitars 1 & 2
e|-----------------------------------------------------------|
B|-----------------------------------------------------------|
G|-----------------------------------------------------------|
D|--9---9-9-9-9----7---7-7-7-7----5---5-5-5-5----5---5-5-5-5-|  X4
A|--9---9-9-9-9----7---7-7-7-7----5---5-5-5-5----5---5-5-5-5-|
E|--7---7-7-7-7----5---5-5-5-5----3---3-3-3-3----3---3-3-3-3-|

Intro x2
Verse
Pre-chorus part
Chorus

Bridge
Guitar 1
e|----------------------------------------------------------------|
B|----------------------------------------------------------------|
G|--7-7-7-7------6-6-6-6---6-7--------------------7-7-7-7---------|
D|--7-7-7-7------6-6-6-6---6-7----5------4-4-4----7-7-7-7---------|  X2
A|--5-5-5-5------4-4-4-4---4-5----5-X8---4-4-4----5-5-5-5---------|
E|--------------------------------3------2-2-2--------------------|
    * * *        * * *
Guitar 2
e|---------------------------------------------------------------------------|
B|---------------------------------------------------------------------------|
G|--7-7-7-7----6-6-6-6---6-7------12--12-12-12-12----11--11-11-11-12-11------|
D|--x-x-x-x----x-x-x-x---x-x--------------------------------------------14-12|X2
A|--5-5-5-5----4-4-4-4---4-5-------------------------------------------------|
E|---------------------------------------------------------------------------|

Solo
Guitar 1
e|---------------------------------------------------------------------------|
B|---------------------------------------------------------------------------|
G|--7-7-7-7----6-6-6-6---6-7-----7----7---7-7--7-7--7--7---6---6---6-6--6-6---6--6--|
D|--7-7-7-7----6-6-6-6---6-7-----7----7---7-7--7-7--7--7---6---6---6-6--6-6---6--6--|
A|--5-5-5-5----4-4-4-4---4-5-----5----5---5-5--5-5--5--5---4---4---4-4--4-4---4--4--|
E|---------------------------------------------------------------------------|

e|---------------------------------------------------------------------------|
B|---------------------------------------------------------------------------|
G|-7---7---7-7--7-7--7--7------11---11---11-11---11-11--11---11--------------|
D|-7---7---7-7--7-7--7--7------11---11---11-11---11-11--11---11--------------|
A|-5---5---5-5--5-5--5--5-------9----9----9--9----9--9---9---9---------------|
E|---------------------------------------------------------------------------|

e|-------------------------------------------------------------------------------------|
B|-------------------------------------------------------------------------------------|
G|-7---7--7-7--7-7--7--7-------6---6---6-6--6-6--6--6-----4--4--4-4--4-4--4--4-----7---|
D|-7---7--7-7--7-7--7--7-------6---6---6-6--6-6--6--6-----4--4--4-4--4-4--4--4-----7---|
A|-5---5--5-5--5-5--5--5-------4---4---4-4--4-4--4--4-----2--2--2-2--2-2--2--2-----5---|
E|-------------------------------------------------------------------------------------|

Guitar 2
e|-------------------------------------------------------------------------|
B|-------------------------------------------------------------------------|
G|--7-7-7-7------6-6-6-6---6-----/7~---6~----2--7~--9--11~---2-7~-11-6~---|
D|--x-x-x-x------x-x-x-x---x-----------------------------------------------|
A|--5-5-5-5------4-4-4-4---4-----------------------------------------------|
E|-------------------------------------------------------------------------|

e|----------------------------|
B|----------------------------|
G|--2--4~-----/16~-----7------|
D|---------------------7------|
A|---------------------5------|
E|----------------------------|


Piano Fill


Final Chorus
Guitars 1 & 2
e|---|------------------------------------------------------------|
B|---|------------------------------------------------------------|
G|-7-|------------------------------------------------------------|
D|-7-|---9---9-9-9-9----7---7-7-7-7----5---5-5-5-5----5---5-5-5-5-|  X4
A|-5-|---9---9-9-9-9----7---7-7-7-7----5---5-5-5-5----5---5-5-5-5-|
E|---|---7---7-7-7-7----5---5-5-5-5----3---3-3-3-3----3---3-3-3-3-|


e|--------------------------------------------------|
B|--------------------------------------------------|
G|--------------------------------------------------|
D|--9---9-9-9-9----7---7-7-7-7----5-5-5-5--5-5-5-5--|  X3
A|--9---9-9-9-9----7---7-7-7-7----5-5-5-5--5-5-5-5--|
E|--7---7-7-7-7----5---5-5-5-5----3-3-3-3--3-3-3-3--|
                                  * * *    *   *   
e|--------------------------------------|
B|--------------------------------------|
G|--------------------------------------|
D|----9--------7--------5---------------|
A|----9--------7--------5---------------|
E|----7--------5--------3---------------|

| /  slide up
|   slide down
| h  hammer-on
| p  pull-off
| ~  vibrato
| +  harmonic
| x  Mute note
===============================================================================






Like us on Facebook