Stay Tab - New Found Glory






By-Francis
S H C ,Lucena City,Philippines
Cp #- 09287150674 
E-add- f_sario@yahoo.com  
http://profiles.friendster.com/37158911

new found glory-stay
this 100% correct!..enjoy...

GtrI-( e b g d A D)

GtrII-( e b g d A D)

Intro-
Verse-
GtrI 

|-------------------------------------------------------------|
|-------------------------------------------------------------|
|-66-6~--33-3~------------------------------------------------|
|-66-6~--33-3~-111111111-3333333-44444444-444~----------------|2x
|-44-4~--11-1~-111111111-3333333-44444444-444~----------------|
|--------------111111111-3333333-44444444-444~----------------|
  **     **    ********* ******* ********  *    


GtrII
|------11~----------------|---------------------------------|
|---------------------13~-|---------------------------------|
|---13----------13--------|---------------------------------|
|11----------11----13-----|-111111111-3333333-44444444-444~-|2x
|---------11------------- |-111111111-3333333-44444444-444~-|
|-------------------------|-111111111-3333333-44444444-444~-|     
 *   *    *  *   *  *       ********* ******* ********  * 
                    
 GtrI &II             
|---------------   ----------------------------------------------|
|---------------   ----------------------------------------------|
|-88-x8-x6-6----   -------------------88-x8-x6-6--88-x8-x6-6-----|
|-88-x8-x6-6----3x -4-444-44-44-4-----88-x8-x6-6--88-x8-x6-6-----|
|-66-x6-x4-4----   -4-444-44-44-4-----66-x6-x4-4--66-x6-x4-4-----|
|---------------   -4-444-44-44-4--------------------------------|


Verse
 GtrI &II  
|-------------------------------------------------------------|
|-------------------------------------------------------------|
|-66-6~--33-3~------------------------------------------------|
|-66-6~--33-3~-111111111-3333333-444444444444444444-----------|
|-44-4~--11-1~-111111111-3333333-444444444444444444-----------|
|--------------111111111-3333333-444444444444444444-----------|
  **     **    ********* ******* ******************   

 GtrI &II  
|-------------------------------------------------------------|
|-------------------------------------------------------------|
|-------------------------------------------------------------|
|--111111111-3333333-444444444444444444~----------------------|
|--111111111-3333333-444444444444444444~----------------------|
|--111111111-3333333-444444444444444444~----------------------|
     
 GtrI &II  
|-------------------------------------------------------------|
|-------------------------------------------------------------|
|--88-x8-x6-6--88-x8-x6-6-----88-x8-x6-6--88-x8-x6-6----------|
|--88-x8-x6-6--88-x8-x6-6-----88-x8-x6-6--88-x8-x6-6----------|2x
|--66-x6-x4-4--66-x6-x4-4-----66-x6-x4-4--66-x6-x4-4----------|
|-------------------------------------------------------------|


 GtrI &II  
|-------------------------------------------------------------|
|-------------------------------------------------------------|
|-------------------------------------------------------------|
|-11111111111111-33333333333--11-11-33--33-444-4-4-4----------|
|-11111111111111-33333333333--11-11-33--33-444-4-4-4----------|
|-11111111111111-33333333333--11-11-33--33-444-4-4-4----------|
                              ** ** **  ** ***   *

 GtrI &II  
|-------------------------------------------------------------|
|-------------------------------------------------------------|
|--88-x8-x6-6--88-x8-x6-6-----88-x8-x6-6----------------------|
|--88-x8-x6-6--88-x8-x6-6-----88-x8-x6-6-4-4-4-4-4-4-4444444--|
|--66-x6-x4-4--66-x6-x4-4-----66-x6-x4-4-4-4-4-4-4-4-4444444--|
|----------------------------------------4-4-4-4-4-4-4444444--|


 GtrI &II  
|-------------------------------------------------------------|
|-------------------------------------------------------------|
|--88-x8-x6-6--88-x8-x6-6-------------------------------------|
|--88-x8-x6-6--88-x8-x6-6-------------------------------------|
|--66-x6-x4-4--66-x6-x4-4-------------------------------------|
|-------------------------------------------------------------|



|-------------------------------------------------------------|
|-------------------------------------------------------------|
|-------------------------------------------------------------|
|-11111111111111-33333333333--11-11-33--33-444-4-4-4----------|
|-11111111111111-33333333333--11-11-33--33-444-4-4-4----------|
|-11111111111111-33333333333--11-11-33--33-444-4-4-4----------|
                              ** ** **  ** ***   *


|-----------------------------------------------------|
|-----------------------------------------------------|
|-66-6~--33-3~----------------------------------------|2x
|-66-6~--33-3~-11-11-33-33-444-4-4-4~-----------------|
|-44-4~--11-1~-11-11-33-33-444-4-4-4~-----------------|
|--------------11-11-33-33-444-4-4-4~-----------------|
  **     **    **    **    ***   * 


GtrII

|------11~----------------|---------------------------------|
|---------------------13~-|---------------------------------|
|---13----------13--------|---------------------------------|
|11----------11----13-----|-11-11-33-33-444-4-4-4~----------| 2x
|---------11------------- |-11-11-33-33-444-4-4-4~----------| 
|-------------------------|-11-11-33-33-444-4-4-4~----------|     
 *   *    *  *   *  *       **    **    ***   *

end






Like us on Facebook