The Promise Tab - New Found Glory






The Promise
New Found Glory
Standard

Intro

       C              A           F          C         A
e-------------------------------------------------------------|
B------3-------------0-------------1---------3---------0------|
G----5---5---------2---2---------2---2-----5--5------2--2-----|
D---5------------2-------------3---------5---------2----------|
A--3-----------0-------------3----------3---------0-----------|
E-------------------------------------------------------------|

e-------------------|
B-------------------|
G------5-5-5-5------|
D---5--5-5-5-5------|    7 Times
A---5--3-3-3-3------|
E---3---------------|

Verse
If you need a friend...
e---------------------------------------------------------|
B---------------------------------------------------------|
G--5555--2222--1111---5555--------------------------------|
D--5555--2222--3333---5555--------------------------------|
A-3333--0000-3333---3333--------------------------------|
E--------------1111---------------------------------------|

Chorus
          I'm sorry, but I'm just thinking of the right words to say.
e-------------------------------------------------------------|
B-------------------------------------------------------------|
G55X5X5-5555-2222--1111---5555--2222-------------------------|
D55X5X5-5555-2222--3333---5555--2222-------------------------|
A33X3X3-3333-0000-3333---3333--0000-------------------------|
E-------------------1111--------------------------------------|

e-------------------|
B-------------------|
G------5-5-5-5------|
D---5--5-5-5-5------|    7 Times
A---5--3-3-3-3------|
E---3---------------|
Verse

Chorus

Solo

e----------------------------------------------------------------|
B----------------------------------------------------------------|
G-5~~~------5-4~--5-----7~-5-4~--5------5-5-4-4-5~--5-9-7-5-5~---|
D-5~~~---5~---------5~-------------5~--5-5-5-5-5-----------------|
A-3~~~-----------------------------------------------------------|
E----------------------------------------------------------------|

Bridge
I will... I will... I will...
e-------------------------------------------------------------|
B-------------------------------------------------------------|
G-5555-2222--5555--2222---------------------------------------|
D5555-2222--5555--2222---------------------------------------|
A3333-0000-3333--0000---------------------------------------|
E-------------------------------------------------------------|

Lyrics

I'm sorry, but I'm just thinking of the right words to say.
I know they don't sound the way I planned them to be.
But if you wait around a while, I'll make you fall for me,
I promise, I promise you I will...

If you need a friend,
Don't look to a stranger,
You know in the end,
I'll always be there.

And when you're in doubt,
And when you're in danger,
Take a look all around,
And I'll be there.

I'm sorry, but I'm just thinking of the right words to say. (I promise you)
I know they don't sound the way I planned them to be. (I promise you)
But if you wait around a while, I'll make you fall for me,(I promise you)
I promise, I promise you I will.

When your day is through,
And so is your temper,
You know what to do,
I'm gonna always be there.

Sometimes if I shout,
It's not what's intended.
These words just come out,
With no gripe to bear.

I'm sorry, but I'm just thinking of the right words to say. (I promise you)
I know they don't sound the way I planned them to be. (I promise you)
But if you wait around a while, I'll make you fall for me,(I promise you)
I promise, I promise you...

I'm sorry, but I'm just thinking of the right words to say. (I promise you)
I know they don't sound the way I planned them to be. (I promise you)
And if I had to walk the world, that make you fall for me,(I promise you)
I promise you, I promise you I will.

I gotta tell ya, I need to tell ya, I gotta tell ya, I gotta tell yaaaa ...

I'm sorry, but I'm just thinking of the right words to say. (I promise you)
I know they don't sound the way I planned them to be. (I promise you)
But if you wait around a while, I'll make you fall for me,(I promise you)
I promise you, I promise you...

I'm sorry, but I'm just thinking of the right words to say. (I promise you)
I know they don't sound the way I planned them to be. (I promise you)
And if I have to walk the world to make you fall for me,(I promise you)
I promise you, I promise you I will ...
I will...
I will...
I will...






Like us on Facebook