Betcha Bass Tab - New Model Army






"Betcha" by New Model Army (from the album "Vengeance")
=======================================================

Transcribed by : Gilles Velay (gvelay@club-internet.fr)

Any comments, corrections or suggestions ?
Please email me at gvelay@club-internet.fr

Notation :
w : whole         . : short note
h : half           : slide down
q : quarter       / : slide up
e : 8th           h : hammer on
s : 16th

Riff I
======
    e   e   e   e   e   e   e   e      q        q       q       e   e
G-|--------------------------------|----------------------------------|
D-|--------------------------------|-0h5------0h3-----0h2-----0h3-0h2-|
A-|-5---5---4---5---5---5---4---5--|----------------------------------|
E-|--------------------------------|----------------------------------|

    e   e   e   e   e   e   e   e      e    e   e   e   e   e   e  e   
G-|--------------------------------|----------------------------------|
D-|--------------------------------|---5--0h5-0h5-0h5-0h5-0h5-0h5-0h5-|
A-|-5---5---4---5---5---5---4---5--|----------------------------------|
E-|--------------------------------|----------------------------------|


Riff II
======
    e   e   e   e   e   e   e   e      e   e   e   e   e   e   e  e   
G-|--------------------------------|----------------------------------|
D-|--------------------------------|----------------------------------|
A-|/3---3---3---3------------------|--/3---3---3---3------------------|
E-|-----------------5-0h5-0h5-0h5--|-------------------5-0h5-0h5-0h5--|


    e   e   e   e   e   e   e   e      e   q+e   s s s e   e   q   
G-|--------------------------------|----------------------------------|
D-|/3---3---3---3------------------|----------------------------------|
A-|-----------------3---3---3---3--|----------------------------------|
E-|--------------------------------|---5---5-----0-3-3-5---5---5------|

    e   e   e   e   e   e   q          w   
G-|--------------------------------|----------------------------------|
D-|--------------------------------|----------------------------------|
A-|-5---5---5---5---5---5---5------|---0------------------------------|
E-|--------------------------------|----------------------------------|


Intro : drums

Verses : only guitar

Choruses : Riff I(x2)

Bridge : Riff II