Ceremony (ver2) Tab - New Order






-------------------------------------------------------------------------------
     Ceremony  New Order
-------------------------------------------------------------------------------
Tabbed by: Gallagher2006
Email: codymadferit@gmail.net

Tuning: STANDARD

My band do a cover of this quite regularly, so I thought Id post what
I figured out on my own

Intro: Guitar comes in after 2 bars

e|-----------------------------------------------------------|
B|-----------------------------------------------------------|
G|-----------------------------------------------------------|
D|-----------7--5----------------------------------5~~-------|
A|--57~~----------57~~~----5--7--5--7--57~~~~---3~~-------|
E|-----------------------------------------------------------|

e|------------------------------|
B|------------------------------|
G|---9~~~~--9~~~----------------|
D|---10~~~--10~~~---------------|
A|---8~~~~--10~~~---------------|
E|----------8~~~~---------------|

Guitar 1: Riff (Listen to song for the timing)

e|---------------------------|
B|----0---0--0--8--8--8------|
G|----9---9--9--9--9--9------|
D|----10-10-10--10-10-10-----|
A|---------------------------|
E|---------------------------|

Guitar 2 follows the bass with these 2 chords (Listen to song for timing)

Strum chords along with bass line.

e|--------------------------|
B|--8------8----------------|
G|--9------9----------------|
D|--10-----10---------------|
A|--8------10---------------|
E|---------8----------------|

Guitar 1

e|------------------------|
B|------------------------|
G|---9~~~~--9/0-----------|
D|---10~~~--10/0----------|
A|---8~~~~--10/0----------|
E|----------8/0-----------|

Guitar 2 riffs for verse: Again, listen to song for the timing.

Youll need to here the song for how many times to repeat each riff

e|---------------|--------------------|
B|---------------|--------------------|
G|---------------|--------------------|
D|-----10-9------|--------------------|
A|-----------10--|----10--10----10~~~-|
E|--8------------|--8--------8--------|

Verse 2: Guitar 1 plays this. listen to song for the timing

e|---------------------------|
B|----0---0--0--8--8--8------|
G|----9---9--9--9--9--9------|
D|----10-10-10--10-10-10-----|
A|---------------------------|
E|---------------------------|


Strum chords along with bass line.

e|--------------------------|
B|--8------8----------------|
G|--9------9----------------|
D|--10-----10---------------|
A|--8------10---------------|
E|---------8----------------|

Until the solo

e|-------------------------------------------------------------|
B|-------------------------------------------------------------|
G|-------------------------------------------------------------|
D|---------------5-5-------------------------------------------|
A|-5--7--5--7--5-----8--75~~---5--7--5--7--5--7--5--7---------|
E|-------------------------------------------------------------|

e|-------------------------------------------------------------|
B|-------------------------------------------------------------|
G|-------------------------------------------------------------|
D|---------------5-5-------------------------------------------|
A|-5--7--5--7--5-----8--75~~---5--7--5--7--5--7--5--7---------|
E|-------------------------------------------------------------|


e|---------------------------------------------------------------------------|
B|---------------------------------------------------------------------------|
G|--/9-7-97-/-12-10--9--7------9--7--9--7--9--7-9---------------------------|
D|---------------------------------------------------------------------------|
A|---------------------------------------------------------------------------|
E|---------------------------------------------------------------------------|

e|---------------------------------------------------------------------------|
B|---------------------------------------------------------------------------|
G|--/9-7-97-/-12-10--9--7------9--7--9--7--9--7-9---------------------------|
D|---------------------------------------------------------------------------|
A|---------------------------------------------------------------------------|
E|---------------------------------------------------------------------------|

Verse 3: Guitar 1 plays this. listen to song for the timing

e|---------------------------|
B|----0---0--0--8--8--8------|
G|----9---9--9--9--9--9------|
D|----10-10-10--10-10-10-----|
A|---------------------------|
E|---------------------------|


Strum chords along with bass line.

e|--------------------------|
B|--8------8----------------|
G|--9------9----------------|
D|--10-----10---------------|
A|--8------10---------------|
E|---------8----------------|

Until the final parts. Where Sumner sings Foreverwhere did he go?

e|---------------------------------|
B|-------8~~~--------8~~~----------|
G|-----9-----------9---------------|
D|--10---------10------------------|
A|---------------------------------|
E|---------------------------------|

Until the build up comes back to these riffs

e|---------------------------|
B|----0---0--0--8--8--8------|
G|----9---9--9--9--9--9------|
D|----10-10-10--10-10-10-----|
A|---------------------------|
E|---------------------------|


Strum chords along with bass line.

e|--------------------------|
B|--8------8----------------|
G|--9------9----------------|
D|--10-----10---------------|
A|--8------10---------------|
E|---------8----------------|

And to end, Sumner plays the solos first part again

e|-------------------------------------------------------------|
B|-------------------------------------------------------------|
G|-------------------------------------------------------------|
D|---------------5-5-------------------------------------------|
A|-5--7--5--7--5-----8--75~~---5--7--5--7--5--7--5--7---------|
E|-------------------------------------------------------------

e|-----------------------------------------------------------|
B|-----------------------------------------------------------|
G|-----------------------------------------------------------|
D|---------------5-5---------------------------------5-------|
A|-5--7--5--7--5-----8--75~~---5--7--5--7--8--7--5--3-------|
E|-----------------------------------------------------------|

Guitar two end on


e|------------------------|
B|--------8---------------|
G|--------9---------------|
D|-------10---------------|
A|-------10---------------|
E|--------8---------------|

This is how I play the whole song anyways, any comments,
leave in the comments section and Ill get back to you =]

| /  slide up
|   slide down
| h  hammer-on
| p  pull-off
| ~  vibrato
| +  harmonic
| x  Mute note
===============================================================================

ĂŽnscrie-te la newsletter


Like us on Facebook