Crystal (ver2) Tab - New Order






-------------------------------------------------------------------------------
     Crystal - New Order
-------------------------------------------------------------------------------
Tabbed by: Guitar_Maestro
Email:

Tuning: Normal

Intro(after mini solo riff) - Heavy distortion

    Am
    1 + 2 + 3 + 4 + 1 + 2 + 3 + 4 +
e|--0---0-0-0-0---0---0---0---0-0-0-|
B|--1---1-0-1-0---1---0---1---0-1-0-|
G|--2---2-2-2-2---2---2---2---2-2-2-|
D|--2---2-2-2-2---2---2---2---2-2-2-|
A|----------------------------------|
E|----------------------------------|
    C                 D
    1 + 2 + 3 + 4 + 1 + 2 + 3 + 4 +
e|--0---0-0-0-0---0---2---2-2-2-2-2-|    Im not sure about the D rhythm
B|--1---1-0-1-0---1---3---3-3-3-3-3-|    but the Am and C rhythms are 
G|--0---0-0-0-0---0---2---2-2-2-2-2-|    good.
D|--2---2-2-2-2---2---0---0-0-0-0-0-|
A|----------------------------------|
E|----------------------------------|

Chorus: Am C G D
The rest of the song pretty much continues either the chorus or this pattern:

Guitar chords: Am  C D  This pattern looks weird, but its right. 
Bass line:     A C G D  

Theres also a keyboard part that plays around on these chords:

Am C G D

ĂŽnscrie-te la newsletter


Like us on Facebook