Turn My Way Tab - New Order






Turn my way

by New Order
from new album 'get ready'

transcribed by Christian Reindel(creindel@gmx.de)
any questions or corrections- e-mail me

normal tuning - only the basics

   main riff - play this the whole song
             - pick the chords in the intro,verse,outro
             - strum the chords in the chorus

    Dm          Cadd9        Bb           F
E:|--1-----------0-----------1------------1-----------|
B:|--3-----------3-----------3------------1-----------|
G:|--2-----------0-----------3------------2-----------|
D:|--0-----------2-----------3------------3-----------|
A:|--------------3-----------1------------3-----------|
E:|---------------------------------------1-----------|

 guitar solo
E:|---------------------------------------------------------|
B:|---------------------------------------------------------|
G:|---------------------------------------------------------|
D:|--12~---12-12-12--10~---10-10-10--8~---8-8-8-------------|
A:|---------------------------------------------8~---8-8-8--|
E:|---------------------------------------------------------|

ĂŽnscrie-te la newsletter


Like us on Facebook