Personality Crisis Bass Tab - New York Dolls




----------------------------------------------------------------------------
     PERSONALITY CRISIS - New York Dolls
----------------------------------------------------------------------------

Tabbed By : Dave benevich
e-mail: imbene@hotmail.com

Tuning:normal

G|-------------------------------------------------------------|
D|--------2--5-5-5-----4--7-7-7--5-3-1-0--5-3-1-0--------------|
A|----3-3----------5-5-----------------------------------------|
E|-------------------------------------------------------------|

G|-------------------------------------------------------------|
D|--------2--5-5-5-----4--7-7-7--5-3-1-0--5-3-1-0--------------|
A|----3-3----------5-5-----------------------------------------|
E|-------------------------------------------------------------|

G|-------------------------------------------------------------|
D|--------2--5-5-5-----4--7-7-7--555-0-555-0-555-0-------------|
A|----3-3----------5-5-----------------------------------------|
E|-------------------------------------------------------------|

G|--------------------------------------------------------------------------|
D|-555-0-555-0-555-0-555-0-555-------------------5-3-1-0--5-3-1-0-----------|
A|------------------------------3-3-3-3--5-5-5-5----------------------------|
E|--------------------------------------------------------------------------|

G|--------------------------------------------------------------------------|
D|------------------5-3-1-0--5-3-1-0-------3-5-5-5------4-7-7-7---5-3-1-0---|
A|-3-3-3-3--5-5-5-5--------------------2-2----------5-5---------------------|
E|--------------------------------------------------------------------------|

Thats pretty much the entire song. It's my first tab so bare with me here. I'm 99% sure 
correct but if there is somethign wrong with it then email me. All you really need to do 
figure out the order but it's pretty much in order already. So yeah. Later.
ĂŽnscrie-te la newsletter


Join the ranks ! LIKE us on Facebook