Trash Bass Tab - New York Dolls




Artist:New York Dolls
Song:Trash
Album:New York Dolls
Bassist:Arthur "Killer" Kane
Tabber:Dev Fuld

This is a cool song to play, and you can deffinately throw your own things in.

G:-------------------------------|-------------------------------|
D:-------------------------------|-------------------------------|
A:----------------3-3-3-3-5-5-5-5|----------------3-3-3-3-5-5-5-5|
E:3-3-3-3-3-3-3-3----------------|3-3-3-3-3-3-3-3----------------|

G:-----------------------------------------------------------|
D:-----------------------------------------------------------|
A:----------------3-3-3-3-2-0-3-3-3-3-3-3-3-3-3-3-3-3-3-3-3-3|
E:3-3-3-3-3-3-3-3--------------------------------------------|

G:----------------|----------------|
D:----------------|----------------|
A:5--5-3--3-2--2-0|5--5-3--3-2--2-0|
E:----------------|----------------|

G:-------------------------------|-------------------------------|
D:-------------------------------|-------------------------------|
A:----------------3-3-3-3-5-5-5-5|----------------3-3-3-3-5-5-5-5|
E:3-3-3-3-3-3-3-3----------------|3-3-3-3-3-3-3-3----------------|

G:-----------------------------------------------------------|
D:-----------------------------------------------------------|
A:----------------3-3-3-3-2-0-3-3-3-3-3-3-3-3-3-3-3-3-3-3-3-3|
E:3-3-3-3-3-3-3-3--------------------------------------------|

G:----------------|----------------|
D:----------------|----------------|
A:5--5-3--3-2--2-0|5--5-3--3-2--2-0|
E:----------------|----------------|

G:-------------------------------|-------------------------------|
D:-------------------------------|-------------------------------|
A:----------------3-3-3-3-5-5-5-5|----------------3-3-3-3-5-5-5-5|
E:3-3-3-3-3-3-3-3----------------|3-3-3-3-3-3-3-3----------------|

G:-----------------------------------------------------------|
D:-----------------------------------------------------------|
A:----------------3-3-3-3-2-0-3-3-3-3-3-3-3-3-3-3-3-3-3-3-3-3|
E:3-3-3-3-3-3-3-3--------------------------------------------|

G:----------------|----------------|----------------|----------------|
D:----------------|----------------|----------------|----------------|
A:5--5-3--3-2--2-0|5--5-3--3-2--2-0|5--5-3--3-2--2-0|5--5-3--3-2--2-0|
E:----------------|----------------|----------------|----------------|

G:----------------|----------------|----------------|----------------|
D:----------------|----------------|----------------|----------------|
A:5--5-3--3-2--2-0|5--5-3--3-2--2-0|5--5-3--3-2--2-0|5--5-3--3-2--2-5|
E:----------------|----------------|----------------|----------------|

"How you call your lover boy?"

After (play this part until end)
G:-------------------------------|-------------------------------|
D:-------------------------------|-------------------------------|
A:----------------3-3-3-3-5-5-5-5|----------------3-3-3-3-5-5-5-5| 
E:3-3-3-3-3-3-3-3----------------|3-3-3-3-3-3-3-3----------------|

End (just end on this)
G:-|
D:-|
A:-|
E:3|

That's it. Pretty easy song, but it still kicks a*s. I already put it in order 
for you, so it's pretty easy. Any questions or comments, e-mail me at rocklvson@yahoo.com

ĂŽnscrie-te la newsletter

Join the ranks ! LIKE us on Facebook