Song For Jesse Tab - Nick Cave And Warren Ellis




From 'The Assassination of Jesse James by the Coward Robert Ford' Soundtrack.

Capo 1

Finger picking around Aminor and F shapes. Let open notes ring out throughout.Listen for timing.



Main tune

-0-0------0-0---------0---0---0----0-0---0---0-0-|
-1---1-1--1---1-1-----1-1-----1-1--1-1-1---1-1-1-|
-----2--------2-----2-2-2---2-2-2--------------2-|
-------------------2----3-------3------3---------|
-0---3----0---3---0-----------0-3--0---------0-3-|
-------------------------------------------------|

Bridge

()= softly plucked. other notes should be emphasised

-----------0----------          ---|
-(1)---(1)---3----1-3-          ---|
--(2)-2-(2)-(2)-(2)---          ---|
----------------------  Repeat  ---|
---0---(0)---(0)---(0)-         --0|  <-- allow note to ring before going
----------------------          ---|      back to main tune.


Repeat as on track, playing with mor intensity with each repetition.

From Jack B

ĂŽnscrie-te la newsletter


Join the ranks ! LIKE us on Facebook