Who I Am ver2 Tab - Nick Jonas And The Administration






                Who I Am  Nick Jonas and the Administration

I think this is pretty accurate.
Leave a comment if you have any corrections :D

Intro:
e|-------------------------------------------------|
B|-------------------------------------------------|
G|--------------------------99-8/9--99-99-8/9--99--|
D|-77-6-6/7-77-77-6-6/7-77--99-9-9--99-99-9-9--99--| x4
A|-77-7-7-7-77-77-7-7-7-77--77-7-7--77-77-7-7--77--|
E|-55-5-5-5-55-55-5-5-5-55-------------------------|

e|-------------------------------------------------------------------|
B|-------------------------------------------------------------------|
G|----------------------------66-666---------------------------------|
D|-77-6-6/7--77-77-6-6/7--77--66-666--77-6-6/7--77-77-6-6/7--77--9--|
A|-77-7-7-7--77-77-7-7-7--77--44-444--77-7-7-7--77-77-7-7-7--77--9--|
E|-55-5-5-5--55-55-5-5-5--55----------55-5-5-5--55-55-5-5-5--55--7--|

Pre-verse:
Guitar 1:
e|-----------------------------------|
B|-----------------------------------|
G|-99999999999999999999999999999999--|
D|-99999999999999999999999999999999--|
A|-77777777777777777777777777777777--|
E|-----------------------------------|

Guitar 2:
e|------7-----7-----7--|
B|--7-9---7-9---7-9----|
G|---------------------|
D|---------------------| x4
A|---------------------|
E|---------------------|

Verse:
Guitar 1:
e|-----7-----7-----9-----7-----7-----7-----7-----7-----7-----9-----7--------|
B|-7-9---7-9---7-9---7-9---7-9---7-9---7-9---7-9---7-9---7-9---7-9---9-7----|
G|------------------------------------------------------------------------9-|
D|--------------------------------------------------------------------------|
A|--------------------------------------------------------------------------|
E|--------------------------------------------------------------------------|

Guitar 2:
e|-------------------------------------------------|
B|-------------------------------------------------|
G|--------------------------99-8/9--99-99-8/9--99--|
D|-77-6-6/7-77-77-6-6/7-77--99-9-9--99-99-9-9--99--| x4
A|-77-7-7-7-77-77-7-7-7-77--77-7-7--77-77-7-7--77--|
E|-55-5-5-5-55-55-5-5-5-55-------------------------|

Chorus:
e|---------------------------------------------------|
B|---------------------------------------------------|
G|----------------------------99-89--99-99-89--99--|
D|-77-6-67--77-77-6-67--77--99-9-9--99-99-9-9--99--| x2
A|-77-7-7-7--77-77-7-7-7--77--77-7-7--77-77-7-7--77--|
E|-55-5-5-5--55-55-5-5-5--55-------------------------|

e|-------------------------------------------------------------------|
B|-------------------------------------------------------------------|
G|----------------------------66-666---------------------------------|
D|-77-6-67--77-77-6-67--77--66-666--77-6-67--77-77-6-67--77--9--|
A|-77-7-7-7--77-77-7-7-7--77--44-444--77-7-7-7--77-77-7-7-7--77--9--|
E|-55-5-5-5--55-55-5-5-5--55----------55-5-5-5--55-55-5-5-5--55--7--|

Verse:
e|---------------------------------------------------|
B|---------------------------------------------------|
G|----------------------------99-89--99-99-89--99--|
D|-77-6-67--77-77-6-67--77--99-9-9--99-99-9-9--99--| x2
A|-77-7-7-7--77-77-7-7-7--77--77-7-7--77-77-7-7--77--|
E|-55-5-5-5--55-55-5-5-5--55-------------------------|

Chorus: 
e|---------------------------------------------------|
B|---------------------------------------------------|
G|----------------------------99-89--99-99-89--99--|
D|-77-6-67--77-77-6-67--77--99-9-9--99-99-9-9--99--| x2
A|-77-7-7-7--77-77-7-7-7--77--77-7-7--77-77-7-7--77--|
E|-55-5-5-5--55-55-5-5-5--55-------------------------|

e|-------------------------------------------------------------------|
B|-------------------------------------------------------------------|
G|----------------------------66-666---------------------------------|
D|-77-6-67--77-77-6-67--77--66-666--77-6-67--77-77-6-67--77--9--|
A|-77-7-7-7--77-77-7-7-7--77--44-444--77-7-7-7--77-77-7-7-7--77--9--|
E|-55-5-5-5--55-55-5-5-5--55----------55-5-5-5--55-55-5-5-5--55--7--|

Solo:
Guitar 1:
e|------------------------------------|    
B|-9-7-912--------------9/11/1311-9-|    
G|----------8-6-811-6/4--------------|    
D|------------------------------------| x2 
A|------------------------------------|    
E|------------------------------------|    

e|-------------------1214~-12-9-----16~-|
B|-10-9-7---12~-9-12-------------12~-----|
G|--------9------------------------------|
D|---------------------------------------|
A|---------------------------------------|
E|---------------------------------------|

Guitar 2:
e|-------------------------------------|    
B|-------------------------------------|    
G|-66666666-44444444-2222222222222222--|    
D|-66666666-44444444-2222222222222222--| x2 
A|-44444444-22222222-0000000000000000--|    
E|-------------------------------------|    

e|--------------------------------------|
B|--------------------------------------|
G|--------------------------------------|
D|-44444444-66666666-77777777-99999999--|
A|-44444444-66666666-77777777-99999999--|
E|-22222222-44444444-55555555-77777777--|

Chorus:
e|---------------------------------------------------|
B|---------------------------------------------------|
G|----------------------------99-89--99-99-89--99--|
D|-77-6-67--77-77-6-67--77--99-9-9--99-99-9-9--99--|
A|-77-7-7-7--77-77-7-7-7--77--77-7-7--77-77-7-7--77--|
E|-55-5-5-5--55-55-5-5-5--55-------------------------|

e|-------------------------------------------------------------------|
B|-------------------------------------------------------------------|
G|----------------------------66-666---------------------------------|
D|-77-6-67--77-77-6-67--77--66-666--77-6-67--77-77-6-67--77--9--|
A|-77-7-7-7--77-77-7-7-7--77--44-444--77-7-7-7--77-77-7-7-7--77--9--|
E|-55-5-5-5--55-55-5-5-5--55----------55-5-5-5--55-55-5-5-5--55--7--|

Outro:
e|---------------------------------------------------|    |-----|
B|---------------------------------------------------|    |-----|
G|----------------------------99-89--99-99-89--99--|    |-9~--|
D|-77-6-67--77-77-6-67--77--99-9-9--99-99-9-9--99--| x2 |-9~--|
A|-77-7-7-7--77-77-7-7-7--77--77-7-7--77-77-7-7--77--|    |-7~--|
E|-55-5-5-5--55-55-5-5-5--55-------------------------|    |-----|

ĂŽnscrie-te la newsletter


Like us on Facebook